PrimaNota.ru - самый крупный в мире бесплатный архив песенных текстов, аккордов, табулатур и нот


Dead Weather - Mile Markers - бас-таба, видео

Регистрация Запомнить меня
Войти через:  Facebook Google Twitter Vk Yandex Mail.ru

Dead Weather - Mile Markers - бас-таба, видео

Печатать
Просмотров: 80
-------------------------------------------------------------------------------
                             Mile Markers - The Dead Weather
-------------------------------------------------------------------------------
Tuning: Standard

Intro:

G|------------------------------------15-14-------12h14---17-14\--------------------|
D|--------------------------13-12---------------------------------------------------|
A|------------13-12------------------------------------------------8-10-12----------|
E|---11-10-----------------------------------------------------------------8--------|

G|----------------------------------------------------------------------------------|
D|---12----------------------12---------------------12------------------------------|
A|-----------------------------------------------------------------8-10-12----------|
E|-------------------------------------------------------------------------8--------|

1st Verse & 1st Chorus (until 1:40):

G|----------------------------------------------------------------------------------|
D|---12--------10h12---------12--------10h12--------12--------10h12-----------------|
A|------------------------------------------------------------------------8-10-12---|
E|------------------10----------------------10---------------------10-------------8-|

Rest of the song:

G|------------------------------------15-14-------12h14---17-14\--------------------|
D|--------------------------13-12---------------------------------------------------|
A|------------13-12---------------------------------------------------8-10-12-------|
E|---11-10--------------------------------------------------------------------8-10--|


| \  slide down
| h  hammer-on
===============================================================================
Добавлено: 06.04.2016
Другие материалы по этой песне:
  • Аккорды и текст

Страница создана 06.04.2016
http://primanota.ru/dead-weather/mile-markers-chords.htm
Привет, Гость.
Предлагаем пройти революционный курс по гитаре.
Подарок от PrimaNota.Ru, забирай!