PrimaNota.ru - самый крупный в мире бесплатный архив песенных текстов, аккордов, табулатур и нот


Dead Weather - Hang You From The Heavens - текст песни, таба, бас-таба, видео

Регистрация Запомнить меня
Войти через:  Facebook Google Twitter Vk Yandex Mail.ru

Dead Weather - Hang You From The Heavens - текст песни, таба, бас-таба, видео

Печатать
Просмотров: 283
Авторы музыки: Alison Mosshart, Dean Fertita

-------------------------------------------------------------------------------
                             The Dead Weather - Hang You From The Heavens
-------------------------------------------------------------------------------

thedeadweather.com
Tuning: Standard
Tabbed By Apcud7

Very easy song by Jack's new band with just E and G throughout the verse. You can play 
string or the power chords.

   E   G   E   G  E  G
e|---------------------------------------------------------------------------|
B|---------------------------------------------------------------------------|
G|---------------------------------------------------------------------------|
D|---------------------------------------------------------------------------|
A|---------------------------------------------------------------------------|
E|-0---3---0---3--0--3-------------------------------------------------------|


Chorus:

e|---------------------------------------------------------------------------|
B|---------------------------------------------------------------------------|
G|-2--2-2----6---------------------------------------------------------------|
D|-2--2-2----6--6--10--10---9---7---2----------------------------------------|
A|-0--0-0----4--6--10--10---9---7---2----------------------------------------|
E|--------------4---8---8---7---5---0----------------------------------------|


Verse: Throughout the later verse they play this, sometimes
playing fifth fret on A:

e|---------------------------------------------------------------------------|
B|---------------------------------------------------------------------------|
G|-----0--------0--------0------------------0------------------0-------------|
D|-2---5-4--2---5b---2---5b-4---2---0---2---4b5r4--2---0---2---4b5r4---------|
A|-2---5----2--------2----------2---5---2----------2---5---2-----------------|
E|-0---3----0--------0----------0-------0----------0-------0-----------------|

Verse: It can also be done like this, where you bend the fourth fret up
to five and then back down again:

e|---------------------------------------------------------------------------|
B|---------------------------------------------------------------------------|
G|-----0----------0--------0-------------------------------------------------|
D|-2---4b5r4--2---5----2---4b5r4---------------------------------------------|
A|-2----------2--------2-----------------------------------------------------|
E|-0----------0--------0-----------------------------------------------------|
Добавлено: 08.04.2012
Другие материалы по этой песне:

Страница создана 25.03.2012
http://primanota.ru/dead-weather/hang-you-from-the-heavens-chords.htm
Привет, Гость.
Предлагаем пройти революционный курс по гитаре.
Подарок от PrimaNota.Ru, забирай!