PrimaNota.ru - самый крупный в мире бесплатный архив песенных текстов, аккордов, табулатур и нот


Dead Weather - Forever My Queen - текст песни, бас-таба, видео

Регистрация Запомнить меня
Войти через:  Facebook Google Twitter Vk Yandex Mail.ru

Dead Weather - Forever My Queen - текст песни, бас-таба, видео

Печатать
Просмотров: 214
http://www.youtube.com/watch?v=ValC22x90jg this is a good video to play along to.

---------------------|
---------------------|
-7-7-7-5-8-7-7-7-5-8-|
---------------------|

-----------------------|
-----5-------4-5-4-----|
-7-7---7-7-6------5-7~-|
-----------------------|

-------------|
-------------|
-----5-----3-|
-0-0---0-0---|

repeat as necessary.

End with

-------------7------------|
---------5-7--------------|
-----5-7------------------|
-5-7--------------------0-|
Добавлено: 04.06.2012
Другие материалы по этой песне:
  • Аккорды и текст

Страница создана 04.06.2012
http://primanota.ru/dead-weather/forever-my-queen-chords.htm
Привет, Гость.
Предлагаем пройти революционный курс по гитаре.
Подарок от PrimaNota.Ru, забирай!