PrimaNota.ru - самый крупный в мире бесплатный архив песенных текстов, аккордов, табулатур и нот


Dead Weather - Die By The Drop - текст песни, таба, бас-таба, видео

Регистрация Запомнить меня
Войти через:  Facebook Google Twitter Vk Yandex Mail.ru

Dead Weather - Die By The Drop - текст песни, таба, бас-таба, видео

Печатать
Просмотров: 332
The Dead Weather - Die By The Drop


Drop D Tuning




INTRO

0:08 - 0:25
E|--------------      ----------------------|
B|--------------      ----------------------|
G|--------------      ----------------------|
D|-------------- x7   ----------------------|
A|--------------      ----------------------|
D|--2--2--2--2--      --2--2---5--4--0--2---|




VERSE 1

0:25 - 0:34
E|--------------       ----------------------|
B|--------------       ----------------------|
G|--------------       ----------------------|
D|-------------- x3    ----------------------|
A|--------------       ----------------------|
D|--2--2--2--2--       --2--2---5--4--0--2---|

0:34 - 0:43
E|--------------       ----------------------|
B|--------------       ----------------------|
G|--------------       ----------------------|
D|-------------- x3    ----------------------|
A|--------------       ----------------------|
D|--2--2--2--2--       --2--2---5--4--0--2---|

0:44 - 0:53
E|--------------       ----------------------|
B|--------------       ----------------------|
G|--------------       ----------------------|
D|-------------- x3    ----------------------|
A|--------------       ----------------------|
D|--2--2--2--2--       --2--2---5--4--0--2---|

0:53 - 1:01
E|--------------       --------|
B|--------------       --------|
G|--------------       --------|
D|-------------- x3    --------|
A|--------------       --------|
D|--2--2--2--2--       --2--2--|




CHORUS

1:01 - 1:19
E|--------------------------10br------------|      -------------|
B|--8--7-------------8--10---------8br------|      --8--7-------|
G|-------7--9----9-------------9-------9----|       ------7--9--|
D|------------------------------------------| x4   -------------|
A|------------------------------------------|      -------------|
D|------------------------------------------|      -------------|




1:23 - 1:29
E|---------------|
B|---------------|
G|---------------|
D|---------------|  x2
A|---------------|
D|---5--4--0--2--|




VERSE 2

1:29 - 1:38
E|--------------       ----------------------|
B|--------------       ----------------------|
G|--------------       ----------------------|
D|-------------- x3    ----------------------|
A|--------------       ----------------------|
D|--2--2--2--2--       --2--2---5--4--0--2---|

1:38 - 1.45
E|--------------       --------|
B|--------------       --------|
G|--------------       --------|
D|-------------- x3    --------|
A|--------------       --------|
D|--2--2--2--2--       --2--2--|




CHORUS

1:45 - 1:50
E|-------------------------10br-------------|
B|------------------8--10---------8br-------|
G|---------------9-------------9------9-----|
D|--5--4------------------------------------|
A|-------5--7-------------------------------|
D|------------------------------------------|

1:50 - 2:05
E|--------------------------10br------------|       -------------|
B|--8--7-------------8--10---------8br------|       --8br7-------|
G|-------7--9----9-------------9-------9----|        ------7--9--|
D|------------------------------------------| x3    -------------|
A|------------------------------------------|       -------------|
D|------------------------------------------|       -------------|




2:05 - 2:14
E|---------------|
B|---------------|
G|---------------|
D|---------------|  x2
A|---------------|
D|---5--4--0--2--|




VERSE 3

2:14 - 2:23
E|--------------       ----------------------|
B|--------------       ----------------------|
G|--------------       ----------------------|
D|-------------- x3    ----------------------|
A|--------------       ----------------------|
D|--2--2--2--2--       --2--2---5--4--0--2---|

2:23 - 2:32
E|--------------       ----------------------|
B|--------------       ----------------------|
G|--------------       ----------------------|
D|-------------- x3    ----------------------|
A|--------------       ----------------------|
D|--2--2--2--2--       --2--2---5--4--0--2---|

2:32 - 2:41
E|--------------       ----------------------|
B|--------------       ----------------------|
G|--------------       ----------------------|
D|-------------- x3    ----------------------|
A|--------------       ----------------------|
D|--2--2--2--2--       --2--2---5--4--0--2---|

2:41 - 2:50
E|--------------       --------|
B|--------------       --------|
G|--------------       --------|
D|-------------- x3    --------|
A|--------------       --------|
D|--2--2--2--2--       --2--2--|




CHORUS

2:50 - 3:30
E|--------------------------10br------------|       -------------|
B|--8--7-------------8--10---------8br------|       --8--7-------|
G|-------7--9----9-------------9-------9----|        ------7--9--|
D|------------------------------------------| x9    -------------|
A|------------------------------------------|       -------------|
D|------------------------------------------|       -------------|




Guitar fill on the verses
E|----------------------|
B|-------------9----8---|
G|--/7--9---------------|
D|----------9----9------|
A|----------------------|
D|----------------------|

Piano (This goes almost through the whole song)
E|--------------|               
B|--------------|               
G|--9--9--9--9--|
D|--------------|
A|--------------|
D|--------------|
Добавлено: 22.02.2012
Другие материалы по этой песне:

Страница создана 22.02.2012
http://primanota.ru/dead-weather/die-by-the-drop-chords.htm
Привет, Гость.
Предлагаем пройти революционный курс по гитаре.
Подарок от PrimaNota.Ru, забирай!