PrimaNota.ru - самый крупный в мире бесплатный архив песенных текстов, аккордов, табулатур и нот


Dead Weather - Buzzkiller - бас-таба, видео

Регистрация Запомнить меня
Войти через:  Facebook Google Twitter Vk Yandex Mail.ru

Dead Weather - Buzzkiller - бас-таба, видео

Печатать
Просмотров: 81
Авторы: Alison Mosshart, Dean Fertita

-------------------------------------------------------------------------------
                             Buzzkill(er) - The Dead Weather
-------------------------------------------------------------------------------
Tabbed by: BassmanBlazek
E-mail: zlogar.blaz9@gmail.com

Tuning: EADGBe

INTRO

Bass starts at 0:13

G|---------------------------------------------------------------------------|
D|------------2------------2-------------------------------------------------|
A|---2-0----0------2-0---0---------------------------------------------------|
E|-0------0------0-----0-------5-7-3-5-2-------------------------------------|

G|---------------------------------------------------------------------------|
D|------------2------------2-------------2-------------2---------------------|
A|---2-0----0------2-0---0------2-0----0------2-0----0----0-1-0-1-0----------|
E|-0------0------0-----0------0------0------0------0-------------------------|

VERSE

G|---------------------------------------------------------------------------|
D|------------2------------2-------------------------------------------------|
A|---2-0----0------2-0---0---------------------------------------------------|
E|-0------0------0-----0-------5-7-3-5-2-------------------------------------| 

G|---------------------------------------------------------------------------|
D|------------2------------2-------------------------------------------------|
A|---2-0----0------2-0---0---------------------------------------------------|
E|-0------0------0-----0-----7-10-7-10-11------------------------------------|

G|---------------------------------------------------------------------------|
D|------------2------------2-------------------------------------------------|
A|---2-0----0------2-0---0---------------------------------------------------|
E|-0------0------0-----0-------5-7-3-5-2-------------------------------------| 

G|---------------------------------------------------------------------------|
D|------------2------------2-------------------------------------------------|
A|---2-0----0------2-0---0---------------------------------------------------|
E|-0------0------0-----0-----7-10-7-10-11------------------------------------|

CHORUS 

G|---------------------------------------------------------------------------|
D|----------------------------------------------PLAYED 2 TIMES---------------|
A|-----------7-7-7-7-7-7-7-6-5-----------7-----------------------------------|
E|-9-9-9-8-7-------------------9-9-9-8-7---5-5-------------------------------|

G|---------------------------------------------------------------------------|
D|---------------------------------------------------------------------------|
A|---------------------------------------------------------------------------|
E|-7-9-10-9-7-9-5-5-5-5-3-7--------------------------------------------------|

POST-CHORUS

G|---------------------------------------------------------------------------|
D|------------2------------2-------------------------------------------------|
A|---2-0----0------2-0---0----0-1-0-1-0--------------------------------------|
E|-0------0------0-----0-----------------------------------------------------|

VERSE 2

G|---------------------------------------------------------------------------|
D|------------2------------2-------------------------------------------------|
A|---2-0----0------2-0---0---------------------------------------------------|
E|-0------0------0-----0-------5-7-3-5-2-------------------------------------| 

G|---------------------------------------------------------------------------|
D|------------2------------2-------------------------------------------------|
A|---2-0----0------2-0---0---------------------------------------------------|
E|-0------0------0-----0-----7-10-7-10-11------------------------------------|

G|---------------------------------------------------------------------------|
D|------------2------------2-------------------------------------------------|
A|---2-0----0------2-0---0---------------------------------------------------|
E|-0------0------0-----0-----------------------------------------------------| 

CHORUS 2

G|---------------------------------------------------------------------------|
D|---------------------------------------------PLAYED 2 TIMES----------------|
A|-----------7-7-7-7-7-7-7-6-5-----------7-----------------------------------|
E|-9-9-9-8-7-------------------9-9-9-8-7---5-5-------------------------------|

G|---------------------------------------------------------------------------|
D|---------------------------------------------------------------------------|
A|---------------------------------------------------------------------------|
E|-7-9-10-9-7-9-5-5-5-5-3-7--------------------------------------------------|

POST-CHORUS 2

G|---------------------------------------------------------------------------|
D|------------2------------2-------------2------------2----------------------|
A|---2-0----0------2-0---0------2-0----0-----2-0----0------------------------|
E|-0------0------0-----0------0------0-----0------0------3b------------------|

VERSE 3


G|---------------------------------------------------------------------------|
D|------------2------------2-------------------------------------------------|
A|---2-0----0------2-0---0---------------------------------------------------|
E|-0------0------0-----0-------3b--------------------------------------------| 

G|---------------------------------------------------------------------------|
D|------------2------------2-------------------------------------------------|
A|---2-0----0------2-0---0---------------------------------------------------|
E|-0------0------0-----0-----------------------------------------------------|

G|---------------------------------------------------------------------------|
D|------------2--------------------------------------------------------------|
A|---2-0----0----------------------------------------------------------------|
E|-0------0------5-7-3-5-2---------------------------------------------------| 

G|---------------------------------------------------------------------------|
D|------------2------------2-------------------------------------------------|
A|---2-0----0------2-0---0---------------------------------------------------|
E|-0------0------0-----0------5-7-3-5-2--------------------------------------|

G|-------------------------------------------------------------------|
D|------------2------------------------------------------------------|
A|---2-0----0--------------------------------------------------------|
E|-0------0----------------------------------------------------------| 


| /  slide up
| \  slide down
| h  hammer-on
| p  pull-off
| ~  vibrato
| +  harmonic
| x  Mute note
===============================================================================
Добавлено: 06.04.2016
Другие материалы по этой песне:
  • Аккорды и текст

Страница создана 06.04.2016
http://primanota.ru/dead-weather/buzzkiller-chords.htm
Привет, Гость.
Предлагаем пройти революционный курс по гитаре.
Подарок от PrimaNota.Ru, забирай!