PrimaNota.ru - самый крупный в мире бесплатный архив песенных текстов, аккордов, табулатур и нот


Dead To Me - Visiting Day - текст песни, таба, видео

Регистрация Запомнить меня
Войти через:  Facebook Google Twitter Vk Yandex Mail.ru

Dead To Me - Visiting Day - текст песни, таба, видео

Печатать
Просмотров: 145
Dead To Me - Visiting Day

Album: Cuban Ballerina
Instrument: Guitar
Tuning: eBGDAE

Tabbed By: Rolf Oslo


e||-----------------------------------------------------------|
B||-----------------------------------------------------------|
G||-----------------------------------------------------------|
D||-2-2-2-2-2-------------------------------------------------|
A||-2-2-2-2-2----11-11-11-11-9----9-9-9-9-7----11-11-11-11-9--|
E||-0-0-0-0-0----7--7--7--7--7----5-5-5-5-5----7--7--7--7--7--|


e||----------------|
B||----------------|
G||-9---8-------8--|
D||-9---9---7---9--|
A||-7---6---7---6--|
E||---------5------|  x 2



e||----------------------------------|
B||----------------------------------|
G||-6-6-6-6-9-9-9-9------------------|
D||-6-6-6-6-9-9-9-9-9-9-9-9-7-7-6-6--|
A||-4-4-4-4-7-7-7-7-9-9-9-9-7-7-7-7--|
E||-----------------7-7-7-7-5-5-4-4--|



e||---------------------|----------|
B||---------------------|----------|
G||---------------------|----------|
D||-4-4-7-7-2-2-2-2-----|-4-4-7----|
A||-4-4-7-7-2-2-2-2-----|-4-4-7----|
E||-2-2-5-5-0-0-0-0-x3--|-2-2-5----|


bass break
e||-------7~-------------|
B||-----8------------8~--|
G||---9------------9-----|
D||-9------------9-------|
A||----------------------|
E||----------------------|


end
e||--------------------|-------------|
B||--------------------|-------------|
G||-6-6-5-5-9-9-9-9----|-6--5--------|
D||-6-6-5-5-9-9-9-9----|-6--5--2-----|
A||-4-4-3-3-7-7-7-7-x4-|-4--3--2--x3-|
E||--------------------|-------0-----|
Добавлено: 01.06.2012
Другие материалы по этой песне:
  • Аккорды и текст

Страница создана 01.06.2012
http://primanota.ru/dead-to-me/visiting-day-chords.htm
Привет, Гость.
Предлагаем пройти революционный курс по гитаре.
Подарок от PrimaNota.Ru, забирай!