PrimaNota.ru - самый крупный в мире бесплатный архив песенных текстов, аккордов, табулатур и нот


Dead To Me - Cause Of My Anger - текст песни, таба, бас-таба, видео

Регистрация Запомнить меня
Войти через:  Facebook Google Twitter Vk Yandex Mail.ru

Dead To Me - Cause Of My Anger - текст песни, таба, бас-таба, видео

Печатать
Просмотров: 126
Dead To Me - Cause Of My Anger

Album: Cuban Ballerina
Instrument: Guitar
Tuning: eBGDAE

Tabbed By: Rolf Oslo


Intro

1. Guitar
e||---------------|-----------------|---------------|---------------|
B||---------------|-----------------|---------------|-10--11----11--|
G||---10-8-7-8-10-|---10-8-7-5--5-7-|---10-8-7-8-10-|-10-----10-----|
D||-8-------------|-8---------------|-8-------------|-10------------|
A||---------------|-----------------|---------------|---------------|
E||---------------|-----------------|---------------|---------------|

2. Guitar
e||-------------|--------------|
B||-------------|--------------|
G||----8-----10-|----8--10-10--|
D||-8--8--8--10-|-8--8--10-10--|
A||-8--6--8--8--|-8--6--8--8---|
E||-6-----6-----|-6------------|




Verse

e||------------------------------|--------------------------|
B||------------------------------|----4-----4--6--8--10-10--|
G||-------5--7--8-----5----------|-3--5--3--5--7--8--10-10--|
D||-5--8--5--7--8--8--5----------|-5--5--5--5--7--8--10-10--|
A||-5--8--3--5--6--8--3----------|-5--3--5--3--5--6--8--8---|
E||-3--6-----------6-----1-1-2-2-|-3-----3------------------|


Chorus

e||---------------|
B||----8------7---|
G||-7--8--8---8---|
D||-8--8--10--8---|
A||-8--6--10--6---|
E||-6-----8-------|


then
Intro x1
Verse x1
Chorus x1


e||-------------|--------------|
B||-------------|--------------|
G||----8-----10-|----8--10-10--|
D||-8--8--8--10-|-8--8--10-10--|
A||-8--6--8--8--|-8--6--8--8---|
E||-6-----6-----|-6------------|



e||------------------6--|------|
B||-4--7--4--------7----|------|
G||-5--8--5------8------|------|
D||-5--8--5----8--------|-8~---|
A||-3--6--3--6----------|-8~---|
E||---------------------|-6~---|
                          pm


e||---------------|-------------|-----------------------------------|
B||------------7--|-------------|-----------------------------------|
G||----------8-8--|----5-----5--|-7------8------7------8-------12~--|
D||-8--3--5--8-8--|-5--5--5--5--|-7------8------7------8-------12~--|
A||-8--3--5--6-6--|-5--3--5--3--|-5-(8x)-6-(8x)-5-(8x)-6-(8x)--10~--|
E||-6--1--3-------|-3-----3-----|-----------------------------------|

2.Guitar on end
e||------------|
B||-6----------|
G||------------|
D||---8--7--8--|
A||------------|
E||------------| x4
Добавлено: 28.04.2012
Другие материалы по этой песне:
  • Аккорды и текст

Страница создана 28.04.2012
http://primanota.ru/dead-to-me/cause-of-my-anger-chords.htm
Привет, Гость.
Предлагаем пройти революционный курс по гитаре.
Подарок от PrimaNota.Ru, забирай!