PrimaNota.ru - самый крупный в мире бесплатный архив песенных текстов, аккордов, табулатур и нот


Dead To Fall - Youve Already Died - текст песни, таба, видео

Регистрация Запомнить меня
Войти через:  Facebook Google Twitter Vk Yandex Mail.ru

Dead To Fall - Youve Already Died - текст песни, таба, видео

Печатать
Просмотров: 167
Уроки эстрадного вокала в Санкт-Петербурге

           Triple Pick This
C# |-------------------------------------------------|
G# |-------------------------------------------------|
E  |-------------------------------------------------|
B  |-------------------------------------------------|
F# |----5--8--5--4--1--0-----------------------------|
B  |-------------------------------------------------|
p.m.


C# |-------------------------------------------------|
G# |-------------------------------------------------|
E  |-------------------------------------------------|
B  |----0-0---7^0----0--7^0--------------------------|
F# |----0-0-------8--0-------8-------8^7\5-----------|
B  |----0-0----------0----------8-8------------------|
p.m.    . .          .          . . 



C# |---------------------------------------------------------------------|
G# |---------------------------------------------------------------------|
E  |---------------------------------------------------------------------|
B  |----0--------------7----------------8-----------------10-------------|
F# |----0---5---7---8--7----8---7---10--8---12---10---10--10------7^8^7--|
B  |----0-0---0---0----7--7---7---7-----8-8----8----8-----10-------------|
p.m.      .   .   .       .   .   .       .    .    .  


C# |------------------------------------------------------------------------|
G# |------------------------------------------------------------------------|
E  |------------------------------------------------------------------------|
B  |----0--------------7----------------8-----------------10----------------|
F# |----0---5---7---8--7----8---7---10--8---12---10---10--10----8-10-7^8^7--|
B  |----0-0---0---0----7--7---7---7-----8-8----8----8-----10-10-------------|
p.m.      .   .   .       .   .   .       .    .    .         .



C# |-------------------------------------------------|
G# |-------------------------------------------------|
E  |-------------------------------------------------|
B  |----0--------7---------8----------5--------------|
F# |----0--------7---------8----------5--------------|
B  |----0--------7---------8----------5--------------|
p.m.


C# |-------------------------------------------------|
G# |-------------------------------------------------|
E  |-------------------------------------------------|
B  |----0-0---7^0----0--7^0--------------------------|
F# |----0-0-------8--0-------8-------8^7\5-----------|
B  |----0-0----------0----------8-8------------------|
p.m.    . .          .          . . 


C# |-------------------------------------------------------|
G# |-------------------------------------------------------|
E  |-------------------------------------------------------|
B  |---00000--00000--00----------00000--0000-0-0-0-0--000--|
F# |---00000--00000--00---8^7\5--00000--0000-0-0-0-0--000--|
B  |---00000--00000--00-8--------00000--0000-0-0-0-0--000--|
p.m.   .....  .....  ..          .....  .... . . . .  ...


C# |------------------------------------------------------------------|
G# |------------------------------------------------------------------|
E  |------------------------------------------------------------------|
B  |---00000--00000--00----------00000--0000-7^0----------7^0---------|
F# |---00000--00000--00---8^7\5--00000--0000-------8^7\5-------8^7\5--|
B  |---00000--00000--00-8--------00000--0000-----8------------8-------|
p.m.   .....  .....  ..          .....  .... 


C# |-------------------------------------------------|
G# |-------------------------------------------------|
E  |-------------------------------------------------|
B  |-------------------------------------------------|
F# |-------4---5-----5---4-----5---7-----8---7-------|
B  |---000---0---777---7---888---8---555---5---------|
p.m.   ...   .   ...   .   ...   .   ...   .


C# |-------------------------------------------------|
G# |-------------------------------------------------|
E  |-------------------------------------------------|
B  |----0-0---7^0----0--7^0--------------------------|
F# |----0-0-------8--0-------8-------8^7\5-----------|
B  |----0-0----------0----------8-8------------------|
p.m.    . .          .          . . 


C# |---------------------------------------------------|
G# |---------------------------------------------------|
E  |---------------------------------------------------|
B  |---00000--00000--000-----00000--0000-0-0-0-0--000--|
F# |---00000--00000--000-----00000--0000-0-0-0-0--000--|
B  |---00000--00000--000-----00000--0000-0-0-0-0--000--|
p.m.   .....  .....  ...     .....  .... . . . .  ...
Добавлено: 16.07.2012
Другие материалы по этой песне:

Страница создана 06.05.2012
http://primanota.ru/dead-to-fall/youve-already-died-chords.htm
Привет, Гость.
Предлагаем пройти революционный курс по гитаре.
Подарок от PrimaNota.Ru, забирай!