PrimaNota.ru - самый крупный в мире бесплатный архив песенных текстов, аккордов, табулатур и нот


Dead To Fall - Eternal Gates Of Hell - текст песни, бас-таба, видео

Регистрация Запомнить меня
Войти через:  Facebook Google Twitter Vk Yandex Mail.ru

Dead To Fall - Eternal Gates Of Hell - текст песни, бас-таба, видео

Печатать
Просмотров: 126
Уроки эстрадного вокала в Санкт-Петербурге
Tuning: Drop B
high to low (E, B, F#, B)


|-------------------------------------------------------------------|
|-------------------------------------------------------------------|
|-----8-----10---8-----8-----7---8-----8-----10---8-----8---7---5h7-|
|-0-0---0-0----0---0-0---0-0---0---0-0---0-0----0---8-8---8---8-----|x4

|-----------------|
|-----------------|
|-----7---8---8p7-|
|-7-7---7---7-----|


|--------------------------------------|
|--------------------------------------|
|-555555557777888810101010888877778888-|
|--------------------------------------|
                                            x2
|----------------------------------|
|----------------------------------|
|-----7---8---8p7-----10---8---7h8-|
|-8-8---8---8-----7-7----7---7-----|


|------------------|___
|------------------|   \
|-5555555577777777-|     x2
|------------------|     \
                          \
|------------------------------------------------------------------|
|------------------------------------------------------------------|
|-8888888888888888101010101010101010101010101010108888888877777777-|
|------------------------------------------------------------------|

|-------------------------------------------------------------------|
|-------------------------------------------------------------------|   
|-55555555777777778888888888888888-----7---8---8p7-----10---8---7h8-|    
|----------------------------------8-8---8---8-----7-7----7---7-----|


Pause.


|-----|
|-----|
|-----|
|-4\--|


|-------------------------|
|-------------------------|
|-------------------------|
|-0-2-1-0-4-1-0-2-1-0-4-1-|x4

|-----|
|-----|
|-----|
|-0x--|


|------------------------------------------------|
|------------------------------------------------|
|------------------------------------------------|
|-0--2--1--0--4--1--0-2-1--0--2--1--0--4--1------|x3


Pause.


|----------------------------------------------|
|----------------------------------------------|
|-------8-----10-----8---------8-----7-----8---|
|-0-0-0---0-0----0-0-----0-0-0---0-0---0-0-----|

|----------------------------------|
|----------------------------------|
|-55555555555555558888888877777777-|
|----------------------------------|

|----------------------------------------------|  
|----------------------------------------------|   
|-------8-----10-----8---------8-----7-----8---|  
|-0-0-0---0-0----0-0-----0-0-0---0-0---0-0-----| 
                                                
|------------------------------------------|   
|------------------------------------------|  
|-7777777788888888101010101010101088888888-| 
|------------------------------------------|

|----------------------------------------------|
|----------------------------------------------|
|-------8-----10-----8---------8-----7-----8---|
|-0-0-0---0-0----0-0-----0-0-0---0-0---0-0-----|

|----------------------------------|
|----------------------------------|
|-55555555555555558888888877777777-|
|----------------------------------|

|----------------------------------------------|  
|----------------------------------------------|   
|-------8-----10-----8---------8-----7-----8---|  
|-0-0-0---0-0----0-0-----0-0-0---0-0---0-0-----| 
                                                
|------------------------------------------|   
|------------------------------------------|  
|-7777777788888888101010101010101088888888-| 
|------------------------------------------|


|-----------------|
|-----------------|
|-----------------|
|-0-0-0-0-0-0-0---|x3
                         x4
|-------------------|
|-------------------|
|-------5--------4--|
|-0-0-0----0-0-0----|


|----------------------------------------------|
|----------------------------------------------|
|-------8-----10-----8---------8-----7-----8---|
|-0-0-0---0-0----0-0-----0-0-0---0-0---0-0-----|

|----------------------------------|
|----------------------------------|
|-55555555555555558888888877777777-|
|----------------------------------|

|----------------------------------------------|  
|----------------------------------------------|   
|-------8-----10-----8---------8-----7-----8---|  
|-0-0-0---0-0----0-0-----0-0-0---0-0---0-0-----| 
                                                
|------------------------------------------|   
|------------------------------------------|  
|-7777777788888888101010101010101088888888-| 
|------------------------------------------|

|----------------------------------------------|
|----------------------------------------------|
|-------8-----10-----8---------8-----7-----8---|
|-0-0-0---0-0----0-0-----0-0-0---0-0---0-0-----|

|----------------------------------|
|----------------------------------|
|-55555555555555558888888877777777-|
|----------------------------------|

|----------------------------------------------|  
|----------------------------------------------|   
|-------8-----10-----8---------8-----7-----8---|  
|-0-0-0---0-0----0-0-----0-0-0---0-0---0-0-----| 
                                                
|---------------------------------------------|   
|---------------------------------------------|  
|-77777777888888881010101010101010------------| 
|----------------------------------3--2--1----|


|-------------------------------------------------|
|-------------------------------------------------|
|-------------------------------------------------|
|-0-0-0---0-0-0-0-0---0-0-0-0-0---0-0-0-0-0---0-0-|x4

|-----------|
|-----------|
|-----------|
|-0-0-0-----|
Добавлено: 09.04.2012
Другие материалы по этой песне:

Страница создана 03.03.2012
http://primanota.ru/dead-to-fall/eternal-gates-of-hell-chords.htm
Привет, Гость.
Предлагаем пройти революционный курс по гитаре.
Подарок от PrimaNota.Ru, забирай!