PrimaNota.ru - самый крупный в мире бесплатный архив песенных текстов, аккордов, табулатур и нот


Dead Stars - Waste Away - таба, видео

Регистрация Запомнить меня
Войти через:  Facebook Google Twitter Vk Yandex Mail.ru

Dead Stars - Waste Away - таба, видео

Печатать
Просмотров: 65
-----------------------------------------------------------------------------
Waste Away - Dead Stars
-----------------------------------------------------------------------------
Tabbed by: Marcusolini
E-mail: marcusolini@yahoo.com

Tuning: Drop D (DADGBe)
Note: Can be played with standard tuning with minor modifications.

Interpretation using:
Epiphone AJ-500RNS Acoustic Guitar
D'Addario Acoustic Guitar Strings - Medium EXP17 - Coated Phosphor Bronze

"Waste Away" on High Gain by Dead Stars
https://www.facebook.com/deadstarsmusic
http://deadstars.bandcamp.com/
https://twitter.com/deadstarsmusic


INTRO (ring in)
e|--------------------------|
B|--------------------------|
G|--------------------------| 
D|--0-----------------------|
A|--------------------------|
D|--------------------------|

 (scratching\muting rhythm)
e|--------------------------|
B|--------------------------|
G|-14-14-14-14-14-14-12-11--| 
D|--0--0--0--0--0--0--0--0--|
A|--x--x--x--x--x--x--x--x--|
D|-12-12-12-12-12-12-12-12--|

e|--------------------------|
B|--------------------------|
G|-11-11-11-11-11-11-11-11--| 
D|--0--0--0--0--0--0--0--0--|
A|--x--x--x--x--x--x--x--x--|
D|-12-12-12-12-12-12-12-12--|

e|--------------------------|
B|-------------------12-----|
G|-14-14-14-14-14-14--x-11--| 
D|--0--0--0--0--0--0--0--0--|
A|--x--x--x--x--x--x--x--x--|
D|-12-12-12-12-12-12-12-12--|

e|--------------------------|
B|--------------------------|
G|-11-11-11-11-11-11-11-11--| 
D|--0--0--0--0--0--0--0--0--|
A|--x--x--x--x--x--x--x--x--|
D|-12-12-12-12-12-12-12-12--|


VERSES (scratching\muting rhythm)
e|--------------------------|
B|--------------------------|
G|-14-14-14-14-14-14-14-14--|
D|--0--0--0--0--0--0--0--0--|
A|--------------------------|
D|--------------------------|

e|--------------------------|
B|--------------------------|
G|-11-11-11-11-11-11-11-11--| 
D|--0--0--0--0--0--0--0--0--|
A|--------------------------|
D|--------------------------|


BRIDGES (scratching\muting rhythm)
e|--------------------------|
B|--------------------------|
G|-11-11-11-11-11-11-11-11--| 
D|--0--0--0--0--0--0--0--0--|
A|--x--x--x--x--x--x--x--x--|
D|-12-12-12-12-12-12-12-12--|

e|--------------------------|
B|--------------------------|
G|-------------------11-----| 
D|-14-14-14-14-14-14--x-14--|
A|--x--x--x--x--x--x--x--x--|
D|-12-12-12-12-12-12-12-12--|


CHORUSES
e|--------------------------|
B|--------------------------|
G|--7---7---7---7--7--7-----| 
D|--7---7---7---7--7--7-----|
A|--5---5---5---5--5--5-----|
D|--------------------------|

e|--------------------------|
B|--------------------------|
G|--------------------------| 
D|--7---7---7---7--7--7-----|
A|--7---7---7---7--7--7-----|
D|--7---7---7---7--7--7-----|

e|--------------------------|
B|--------------------------|
G|--7---7---7---7--7--7-----| 
D|--7---7---7---7--7--7-----|
A|--9---9---9---9--9--9-----|
D|--------------------------|

e|--------------------------|
B|--------------------------|
G|--9---9---9---9--9--9-----| 
D|--9---9---9---9--9--9-----|
A|-10--10--10--10-10-10-----|
D|--------------------------|


MIDTRO (scratching\muting rhythm)
e|--------------------------|
B|--------------------------|
G|-14-14-14-14-14-14-12-11--| 
D|--0--0--0--0--0--0--0--0--|
A|--x--x--x--x--x--x--x--x--|
D|-12-12-12-12-12-12-12-12--|

e|--------------------------|
B|--------------------------|
G|-11-11-11-11-11-11-11-11--| 
D|--0--0--0--0--0--0--0--0--|
A|--x--x--x--x--x--x--x--x--|
D|-12-12-12-12-12-12-12-12--|

e|--------------------------|
B|-------------------12-----|
G|-14-14-14-14-14-14--x-11--| 
D|--0--0--0--0--0--0--0--0--|
A|--x--x--x--x--x--x--x--x--|
D|-12-12-12-12-12-12-12-12--|

e|--------------------------|
B|--------------------------|
G|-11-11-11-11-11-11-11-11--| 
D|--0--0--0--0--0--0--0--0--|
A|--x--x--x--x--x--x--x--x--|
D|-12-12-12-12-12-12-12-12--|


OUTRO (ring out)
e|--------------------------|
B|--------------------------|
G|-11-----------------------| 
D|-12-----------------------|
A|--x-----------------------|
D|--0-----------------------|
Добавлено: 09.09.2013
Другие материалы по этой песне:
  • Аккорды и текст

Страница создана 09.09.2013
http://primanota.ru/dead-stars/waste-away-chords.htm
Привет, Гость.
Предлагаем пройти революционный курс по гитаре.
Подарок от PrimaNota.Ru, забирай!