PrimaNota.ru - самый крупный в мире бесплатный архив песенных текстов, аккордов, табулатур и нот


Dead Sons - Room 54 - таба, видео

Регистрация Запомнить меня
Войти через:  Facebook Google Twitter Vk Yandex Mail.ru

Dead Sons - Room 54 - таба, видео

Печатать
Просмотров: 96
Уроки эстрадного вокала в Санкт-Петербурге
|--------------------------------------------------------------------|
|--------------------------------------------------------------------|
|--------------------------------------------------------------------|
|--------------------------------------------------------------------|
|--------------------------------------------------------------------|
|-0-0-0-0-0-0-0-0-0-0-0-0-0-0-0-0-0-0-0-0-0-0-0-0-0-0-0-0-0--4-4-3-3-|

|---------------------------------------------------------------------|
|---------------------------------------------------------9^-8^-------|
|-----------------------------------------------------------9--9------|
|---------------------------------------------------------------------|
|-5-5-5-5-5-5-5-5-5-6-5-5-5-5-5-5-5-5-5-5-6-5-5-5-6-5-5-5-------------|
|----------------------------------------------------------------(x3)-|

|---------------------------------------------------------------------|
|---------------------------------------------------------9^-10^11^---|
|-----------------------------------------------------------9---------|
|---------------------------------------------------------------------|
|-5-5-5-5-5-5-5-5-5-6-5-5-5-5-5-5-5-5-5-5-6-5-5-5-6-5-5-5-------------|
|---------------------------------------------------------------------|

|----------------------------------------------------------------------|
|-7---7---7---7---9---9---9---9---7---7---7---7---6-10-12-13-12-13-15--|
|---7---7---7---7---9---9---9---9---7---7---7---7----------------------|
|----------------------------------------------------------------------|
|----------------------------------------------------------------------|
|----------------------------------------------------------------------|

-------------|
-14-15/10-17-|
-------------|
-------------|
-------------|
-------------|
Repeat the verse then it comes to this part.
|---------------9b------------------------------|
|-9h8h7h6-(x20)----(repeat <--)-12(x10)15(x6)17-|
|-----------------------------------------------|
|-----------------------------------------------|
|-----------------------------------------------|
|-----------------------------------------------|

You can pretty much work the rest out from this.

http://www.deadsons.co.uk/
Добавлено: 22.11.2013
Другие материалы по этой песне:

Страница создана 22.11.2013
http://primanota.ru/dead-sons/room-54-chords.htm
Привет, Гость.
Предлагаем пройти революционный курс по гитаре.
Подарок от PrimaNota.Ru, забирай!