PrimaNota.ru - самый крупный в мире бесплатный архив песенных текстов, аккордов, табулатур и нот


Dead Sara - Weatherman - таба, видео

Регистрация Запомнить меня
Войти через:  Facebook Google Twitter Vk Yandex Mail.ru

Dead Sara - Weatherman - таба, видео

Печатать
Просмотров: 919
This is the main guitar riff - The beginning of the song
THis most excellent band is widely covered on Youtube and
you can see alot of ther performances

G A D G B e  

email me at stratocaster1@gmx.com with comments or suggestions.
I also have a run down on Siouxsie's pedal board if you're interested.
The main riff I believe is covered by a Fuzz pedal and the single shot is done with a 
an EHX Holy Grail Reverb and MXR Carbon Copy Delay


Title: WEATHERMAN
Artist: Dead Sara
Tempo = 168
Electric Guitar

Legend
L - tied note
x - dead note
h - hammer on/pull off
b - bend
s - slide
~ - vibrato
g - ghost note
> - accentuated note
t - trill
M - palm mute
. - staccato
P - popping (bass)
S - slapping (bass)
+ - tapping
W - wide vibrato
< - fade in
w - whammy bar
= - tremolo picking
v - brush up
^ - brush down
V - pick stroke up
n - pick stroke down

     n     n     n  V  n          n     n     n  V  n        
E |----------------------------|----------------------------|
B |----------------------------|----------------------------|
G |----------------------------|----------------------------|
D |----------------------------|----------------------------|
A |--10----10------------------|--10----10------------------|
G |--0-----0-----10-12-0-------|--0-----0-----10-12-0-------|

  n     n     n  V  n          n     n     n  V  n        
----------------------------|----------------------------|
----------------------------|----------------------------|
----------------------------|----------------------------|
----------------------------|----------------------------|
--10----10------------------|--10----10------------------|
--0-----0-----10-12-0-------|--0-----0-----10-12-0-------|

  n     n     n  V  n          n     n     n  V  n        
----------------------------|----------------------------|
----------------------------|----------------------------|
----------------------------|----------------------------|
----------------------------|----------------------------|
--10----10------------------|--10----10------------------|
--0-----0-----10-12-0-------|--0-----0-----10-12-0-------|

  n     n     n  V  n          n     n     n  V  n        
----------------------------|----------------------------|
----------------------------|----------------------------|
----------------------------|----------------------------|
----------------------------|----------------------------|
--10----10------------------|--10----10------------------|
--0-----0-----10-12-0-------|--0-----0-----10-12-0-------|

  n     n     n  V  n          n     n     n  V  n        
----------------------------|----------------------------|
----------------------------|----------------------------|
----------------------------|----------------------------|
----------------------------|----------------------------|
--10----10------------------|--10----10------------------|
--0-----0-----10-12-0-------|--0-----0-----10-12-0-------|

  n     n     n  V  n                     n     n     n  V  n        
----------------------------|----------|----------------------------|
----------------------------|----------|----------------------------|
----------------------------|--7s-17~--|----------------------------|
----------------------------|--xs-x----|----------------------------|
--10----10------------------|--5s-15---|--10----10------------------|
--0-----0-----10-12-0-------|----------|--0-----0-----10-12-0-------|

  n     n     n  V  n          n     n     n  V  n                           
----------------------------|----------------------------|----------|-------|
----------------------------|----------------------------|----------|-------|
----------------------------|----------------------------|--7s-17~--|-------|
----------------------------|----------------------------|--xs-x----|-------|
--10----10------------------|--10----10------------------|--5s-15---|--10L--|
--0-----0-----10-12-0-------|--0-----0-----10-12-0-------|----------|--0L---|

                                                n  V     n                
-------|----------------------------|----------------------------|-------|
-------|----------------------------|----------------------------|-------|
-------|----------------------------|-----------3--3s----5-------|--5L---|
-------|----------------------------|-----------x--x-----x-------|--xL---|
--10~--|--10L---10------------------|-----------3--3s----5-------|--5L---|
--0~---|--0L----0--0L-0L------------|--0L----0--x--x-----x-------|--xL---|

                                                n  V     n                
-------|----------------------------|----------------------------|-------|
-------|----------------------------|----------------------------|-------|
--5~---|----------------------------|-----------3--3s----5-------|-------|
--x~---|----------------------------|-----------x--x-----x-------|-------|
--5~---|--10L---10------------------|-----------3--3s----5-------|-------|
--x~---|--0L----0--0L-0-------------|--0L----0--x--x-----x-------|-------|

                                                n  V              
-------|----------------------------|----------------------------|
-------|----------------------------|----------------------------|
-------|----------------------------|-----------3~-5~------------|
-------|----------------------------|-----------x--x-------------|
-------|----------------------------|-----------3~-5~------------|
-------|----------------------------|-----------x--x-------------|

                                                              n  V              
----------------|----------------|----------------|----------------------------|
----------------|----------------|----------------|----------------------------|
----------------|----------------|----------------|-----------3~-5~------------|
----------------|----------------|----------------|-----------x--x-------------|
----------------|----------------|----------------|-----------3~-5~------------|
----------------|----------------|----------------|-----------x--x-------------|

                                                          
----------------------------|----------------------------|
----------------------------|----------------------------|
----------------------------|----------------------------|
----------------------------|----------------------------|
----------------------------|----------------------------|
--xM-xM-xM-xM-xM-xM-xM-xM---|--xM-xM-xM-xM-xM-xM-xM-xM---|

                                        n  V              
----------------------------|----------------------------|
----------------------------|----------------------------|
----------------------------|-----------3~-5~------------|
----------------------------|-----------x--x-------------|
----------------------------|-----------3~-5~------------|
--xM-xM-xM-xM-xM-xM-xM-xM---|--xM-xM-xM-x--x-------------|

                                                          
----------------------------|----------------------------|
----------------------------|----------------------------|
----------------------------|----------------------------|
----------------------------|----------------------------|
----------------------------|----------------------------|
--xM-xM-xM-xM-xM-xM-xM-xM---|--xM-xM-xM-xM-xM-xM-xM-xM---|

                                        n  V                              
----------------------------|----------------------------|-------|-------|
----------------------------|----------------------------|-------|-------|
----------------------------|-----------3~-5L------------|--5L---|--5L---|
----------------------------|-----------x--xL------------|--xL---|--xL---|
----------------------------|-----------3~-5L------------|--5L---|--5L---|
--xM-xM-xM-xg-xM-xM-xM-xM---|--xM-xM----x--xL------------|--xL---|--x~---|

          n  V                               n     n     n  V  n        
-------|----------|-------|-------|-------|----------------------------|
-------|----------|-------|-------|-------|----------------------------|
--5~---|--3~-5L---|--5L---|--5~---|-------|----------------------------|
--x~---|--x--xL---|--xL---|--x----|-------|----------------------------|
--5~---|--3~-5L---|--5L---|--5~---|-------|--10----10------------------|
--x----|--x--xL---|--xL---|--x~---|-------|--0-----0-----10-12-0-------|

  n     n     n  V  n          n     n     n  V  n                   
----------------------------|----------------------------|----------|
----------------------------|----------------------------|----------|
----------------------------|----------------------------|--7s-17~--|
----------------------------|----------------------------|--xs-x----|
--10----10------------------|--10----10------------------|--5s-15---|
--0-----0-----10-12-0-------|--0-----0-----10-12-0-------|----------|

  n     n     n  V  n          n     n     n  V  n        
----------------------------|----------------------------|
----------------------------|----------------------------|
----------------------------|----------------------------|
----------------------------|----------------------------|
--10----10------------------|--10----10------------------|
--0-----0-----10-12-0-------|--0-----0-----10-12-0-------|

  n     n     n  V  n
----------------------------|----------|----|----|----|----|----|----|----|----|
----------------------------|----------|----|----|----|----|----|----|----|----|
----------------------------|--7s-17~--|----|----|----|----|----|----|----|----|
----------------------------|--xs-x----|----|----|----|----|----|----|----|----|
--10----10------------------|--5s-15---|----|----|----|----|----|----|----|----|
--0-----0-----10-12-0-------|----------|----|----|----|----|----|----|----|----|

Добавлено: 08.08.2013
Вам также может быть интересно:
Другие материалы по этой песне:
  • Аккорды и текст

Страница создана 08.08.2013
http://primanota.ru/dead-sara/weatherman-chords.htm
Привет, Гость.
Предлагаем пройти революционный курс по гитаре.
Подарок от PrimaNota.Ru, забирай!