PrimaNota.ru - самый крупный в мире бесплатный архив песенных текстов, аккордов, табулатур и нот


Dead Sara - Mona Lisa - таба, видео

Регистрация Запомнить меня
Войти через:  Facebook Google Twitter Vk Yandex Mail.ru

Dead Sara - Mona Lisa - таба, видео

Печатать
Просмотров: 147
Авторы: Dead Sara

-------------------------------------------------------------------------------
                             MONA LISA - Dead Sara
-------------------------------------------------------------------------------
Tabbed by: Chris Glenn
E-mail: chrisglenn17@hotmail.com

Tuning: Db Standard
        Db Ab Db Gb Bb Eb

First tab hope you can understand it. I recorded a cover of this if you need to see any parts played.
https://www.youtube.com/watch?v=3vvSzhiivRc

0:19-0:38
E|-------------|
B|-------------|
G|-------------|
D|-------------| x8
A|--------/5\--|
E|-0-0-00------|
   x x xx

0:39-0:47
E|-------------|
B|-------------|
G|-------------|
D|0-0-00-------| x4
A|0-0-00-/5\---|
E|0-0-00-------|


0:48-0:53
E|---------------------------|
B|---------------------------|
G|---------------------------|
D|---------------------------|
A|--------/5\-----------/5\~-|
E|-0-0-00-------0-0-00-------|
   x x xx       x x xx

1:00-1:10
E|------------------------|
B|-9br-7-5-4-5--5-4-5-7br-|
G|-9br-7-5-4-5--5-4-5-7br-|
D|------------------------| x2
A|------------------------|
E|------------------------|


1:14-1:22
E|-------------|
B|-------------|
G|-------------|
D|-------------| x3
A|--------/5\--|
E|-0-0-00------|
   x x xx

1:23-1:43
E|-------------|
B|-------------|
G|-------------|
D|0-0-00-------| x8
A|0-0-00-/5\---|
E|0-0-00-------|


1:52-2:07
E|-----------------------------|
B|-----------------------------|
G|--------------------10-------|
D|--------------10h12----12----| x4
A|-5-8-5-5---------------------|
E|---------3-0~----------------|
       x x


2:07-2:18
E|-------------------------------------------|
B|-------------------------------------------|
G|-------------------------------------------|
D|-------------------------------------------|
A|-5-8-5-5-----------------------------------|
E|---------3-0-0-0----0-0-0---0-0-0---0-0-0~-|

2:22-2:42 (bass first then guitar comes in)
E|---------------------------------------------                |--------------|
B|---------------------------------------------                |--------------|
G|---------------------------------------------                |--------------|
D|--------------------------------------------- x As Necessary |--------------|
A|---------------------------------------------                |-5-8-5-5------|
E|-0-12-12-12-12-0-12-12-12-12-0-12-12-12-12---                |---------3-0~-|
                                                                     x x


2:45-2:47
E|----------------------------------------------|
B|----------------------------------------------|
G|----------------------------------------------|
D|----------------------------------------------|
A|----------------------------------------------|
E|-0-12-12-12-12-0-12-12-12-12-0-12-12-12-12-0\-|

2:50-2:59
E|-------------   --------------|
B|-------------    |---    -----|
G|-------------    |-5-    -7---|
D|0-0-00------- x3 |-x- x8 -x---| x8
A|0-0-00-/5\---    |-3-    -5---|
E|0-0-00-------    |---    -----|

3:00-3:07
E|-------------|
B|-------------|
G|-------------|
D|0-0-00-------| x3
A|0-0-00-/5\---|
E|0-0-00-------|

3:08
E|--
B|--
G|--
D|0-
A|0-
E|0-

************************************

| /   slide up
| \   slide down
| h   hammer-on
| p   pull-off
| ~   vibrato
| +   harmonic
| x   Mute note
| b   Bend
| pb  Pre-bend
| br  Bend release
| pbr Pre-bend release
| brb Bend release bend

************************************
Добавлено: 06.10.2015
Другие материалы по этой песне:
  • Аккорды и текст

Страница создана 06.10.2015
http://primanota.ru/dead-sara/mona-lisa-chords.htm
Привет, Гость.
Предлагаем пройти революционный курс по гитаре.
Подарок от PrimaNota.Ru, забирай!