PrimaNota.ru - самый крупный в мире бесплатный архив песенных текстов, аккордов, табулатур и нот


Dead Sara - Lemon Scent - таба, видео

Регистрация Запомнить меня
Войти через:  Facebook Google Twitter Vk Yandex Mail.ru

Dead Sara - Lemon Scent - таба, видео

Печатать
Просмотров: 288
-----------------------------------------------------------------
Lemon Scent- Dead Sara
-----------------------------------------------------------------
Tabbed by: Josh Brown
Email: jsb111093@gmail.com
Tuning: Standard
Here's my tab of Lemon Scent by Dead Sara. I recommend using a fuzz pedal for this song,
because it will get you a nice decaying sound on some of the notes. I personally use a
Big Muff Pi, but Siouxsie uses a Death by Audio Supersonic Fuzz Gun (She told me herself 
via tweet), which is around $300 street. This song does not use the “Dead Sara tuning.”
(GADGBE) It is in standard.
Guitar 1: Emily
Guitar 2: Siouxsie
Order Sequence:
Intro - x2
Verse- x1
Pre-Chorus- x2
Chorus- x4
Verse- x1
Pre-Chorus- x2
Chorus- x8
Breakdown/Bridge- x1
Chorus Variation- x1
Chorus- x1
Outro Solo- x1


Intro/Pre-chorus:
e|---------------------------------------------------------------|
B|---------------------------------------------------------------|
G|---------------------------------------------------------------|
D|---------------------------------------------------------------|
A|---------------------------------------------------------------|
E|-15-0-0-15-0-0-15-0-15-0-0-15-0-0-15-0-15-0-0-15-0-0-15-0------|

e|---------------------------------------------------------------|
B|---------------------------------------------------------------|
G|---------------------------------------------------------------|
D|---------------------------------------------------------------|
A|---------------------------------------------------------------|
E|-15/3hb-----15/5hb---------------------------------------------|


Verse: (Guitar 1, repeated) [Emily]
e|---------------------------------------------------------------|
B|-15b17~-15-12-15-----------15b17-15-12-12----12----12----12----|
G|-----------------/14hb-----------------14b16-14b16-14b16-14b16-|
D|-----------------------14--------------------------------------|
A|---------------------------------------------------------------|
E|---------------------------------------------------------------|







Verse: (Guitar 2, come in on 2nd time)[Siouxsie]
e|-----------------------------12~~~~----------------------------|
B|-----------------------------15b17~----------------------------|
G|---9-9-9-9-9-9-9-9-9-9-9-9-----------9-9-9-9-9-9-9-------------|
D|---9-9-9-9-9-9-9-9-9-9-9-9-----------9-9-9-9-9-9-9-------------|
A|---7-7-7-7-7-7-7-7-7-7-7-7-----------7-7-7-7-7-7-7-------------|
E|-0-------------------------0-------0---------------15\3b-15\5b-|



Pre-Chorus:
e|---------------------------------------------------------------|
B|---------------------------------------------------------------|
G|---------------------------------------------------------------|
D|---------------------------------------------------------------|
A|---------------------------------------------------------------|
E|-15-0-0-15-0-0-15-0-------------------12\----------------------|
                      “You Got That..”

e|-----------------------------------|-|-------------------------|
B|---------------------------------o-|-|-------------------------|
G|-----------------------------------|-|-------------------------|
D|-----------------------------------|-|-------------------------|
A|---------------------------------o-|-|-------------------------|
E|-15-0-0-15-0-0-15\3b-15\5b---------|-|-------------------------|




Chorus:                                 Guitar One (Opt. w/ bass)
e|--------------------------------|-|--------------------------|-|
B|------------------------------o-|-|------------------------o-|-|
G|-12-12----12----12\7-7/9-9------|-|--------------------------|-|
D|-------14----14-----------------|-|-2---2---2---2------------|-|
A|------------------------------o-|-|-2---2---2---2----------o-|-|
E|--------------------------------|-|-0---0---0---0------------|-|


Breakdown/Bridge:               ........................
e|---------------------------------------------------------------|
B|---------------------------------------------------------------|
G|-9------9------9------9------9999999999999999999999999---------|
D|-9------9------9------9------9999999999999999999999999---------|
A|-7------7------7------7------7777777777777777777777777---------|
E|-0------0------0------0------0------------------------000000000|

Chorus (Variation): This is basically the same thing as the regular chorus, but in order
to simulate the organ-like sounds, I use a Digitech Whammy.
e|--------------------------------|-|----------------------------|
B|------------------------------o-|-|----------------------------|
G|-12-12----12----12\7-7/9-9------|-|----------------------------|
D|-------14----14-----------------|-|-14sb—14sb-14b--------------|
A|------------------------------o-|-|----------------------------|
E|--------------------------------|-|--------------12\-----------|
   Octave Up (opt.) (Repeat x2)


Outro Solo: [Siouxsie]
e||-|---12----12----12----12----12----12----12----12-------------|
B||-|-o-15b17-15b17-15b17-15b17-15b17-15b17-15b17-15b17----------|
G||-|------------------------------------------------------------|
D||-|------------------------------------------------------------|
A||-|-o----------------------------------------------------------|
E||-|------------------------------------------------------------|


 |-----------------------------------------(1.)----------------|-|
e|-15-12----12-12-------12-15-12----12---------------------------|
B|-------15----15b17-15----------15-15b17------------------------|
G|---------------------------------------------------------------|
D|---------------------------------------------------------------|
A|---------------------------------------------------------------|
E|---------------------------------------------------------------|

                                           1.)------|--------------|
e|-15-12----12-15-12----12-15-12----12-15-12----12--|-|------------|
B|-------15----------15----------15----------15---o-|-|------------|
G|--------------------------------------------------|-|------------|
D|--------------------------------------------------|-|------------|
A|------------------------------------------------o-|-|------------|
E|--------------------------------------------------|-|------------|


                                                       2.)-----|-|
e|-15-12----12-15-12----12-15-12----12-15-12----12-------------|-|
B|-------15----------15----------15----------15----------------|-|
G|-------------------------------------------------------------|-|
D|-------------------------------------------------------------|-|
A|-------------------------------------------------------------|-|
E|-------------------------------------------------0~~~--------|-|
                                                   *Into Feedback




| /  slide up
| \  slide down
| h  hammer-on
| p  pull-off
| ~  vibrato
| +  harmonic
| x  Mute note
| . Palm-Mute
Добавлено: 09.09.2013
Другие материалы по этой песне:
  • Аккорды и текст

Страница создана 19.06.2013
http://primanota.ru/dead-sara/lemon-scent-chords.htm
Привет, Гость.
Предлагаем пройти революционный курс по гитаре.
Подарок от PrimaNota.Ru, забирай!