PrimaNota.ru - самый крупный в мире бесплатный архив песенных текстов, аккордов, табулатур и нот


Dead Poetic - Ollie Oston - таба, видео

Регистрация Запомнить меня
Войти через:  Facebook Google Twitter Vk Yandex Mail.ru

Dead Poetic - Ollie Oston - таба, видео

Печатать
Просмотров: 108
-----------------------------------------------------------------------------
                             OLLIE OSTON - Dead Poetic
----------------------------------------------------------------------------

Tabbed by: Jennifer
Email: sonic_speed_@hotmail.com

Tuning: Dropped D

Intro 1: x2
Palm Mute.........................................
e---------------------------------------------------|
B---------------------------------------------------|
G-4-4-4-------7-7-7-7-7-7--4-4-4-------7-7-7-7-7-7--|
D-2-2-2-0-0-0-5-5-5-5-5-5--2-2-2-0-0-0-5-5-5-5-5-5--|
A-2-2-2-0-0-0-5-5-5-5-5-5--2-2-2-0-0-0-5-5-5-5-5-5--|
D-2-2-2-0-0-0-5-5-5-5-5-5--2-2-2-0-0-0-5-5-5-5-5-5--|

Intro 2: x2
(Instruments come in, not palm muted)
e---------------------------------------------------|
B---------------------------------------------------|
G-4-4-4-------7-7-7-7-7-7--4-4-4-------7-7-7-7-7-7--|
D-2-2-2-0-0-0-5-5-5-5-5-5--2-2-2-0-0-0-5-5-5-5-5-5--|
A-2-2-2-0-0-0-5-5-5-5-5-5--2-2-2-0-0-0-5-5-5-5-5-5--|
D-2-2-2-0-0-0-5-5-5-5-5-5--2-2-2-0-0-0-5-5-5-5-5-5--|

Verse: x2
e-----------------------------------------------------------------|
B-----------------------------------------------------------------|
G-7-7-7-7-4-4---------------------4-4-4-4-7-7---------------------|
D-5-5-5-5-2-2-------(pause)-------2-2-2-2-5-5-------(pause)-------|
A-5-5-5-5-2-2---------------------2-2-2-2-5-5---------------------|
D-5-5-5-5-2-2---------------------2-2-2-2-5-5---------------------|


Verse Continued: x2
e-------------14*14*14*14*14*14*----------------------------------|
B-----------------------------------------------------------------|
G-7-7-7-7-4-4---------------------4-4-4-4-7-7---------------------|
D-5-5-5-5-2-2---------------------2-2-2-2-5-5-12*12*12*12*12*12*--|
A-5-5-5-5-2-2---------------------2-2-2-2-5-5---------------------|
D-5-5-5-5-2-2---------------------2-2-2-2-5-5---------------------|

Chorus: x4
e-------------------------------------|
B-------------------------------------|
G-7--7--7--7--7--7--4--4--4--4--4--4--|
D-5--5--5--5--5--5--2--2--2--2--2--2--|
A-5--5--5--5--5--5--2--2--2--2--2--2--|
D-5--5--5--5--5--5--2--2--2--2--2--2--|

Post-Chorus: x2
e---------------------------------------------------|
B---------------------------------------------------|
G-4-4-4-------7-7-7-7-7-7--4-4-4-------7-7-7-7-7-7--|
D-2-2-2-0-0-0-5-5-5-5-5-5--2-2-2-0-0-0-5-5-5-5-5-5--|
A-2-2-2-0-0-0-5-5-5-5-5-5--2-2-2-0-0-0-5-5-5-5-5-5--|
D-2-2-2-0-0-0-5-5-5-5-5-5--2-2-2-0-0-0-5-5-5-5-5-5--|

Verse: x2
e-----------------------------------------------------------------|
B-----------------------------------------------------------------|
G-7-7-7-7-4-4---------------------4-4-4-4-7-7---------------------|
D-5-5-5-5-2-2-------(pause)-------2-2-2-2-5-5-------(pause)-------|
A-5-5-5-5-2-2---------------------2-2-2-2-5-5---------------------|
D-5-5-5-5-2-2---------------------2-2-2-2-5-5---------------------|


Verse Continued: x2
e-------------14*14*14*14*14*14*----------------------------------|
B-----------------------------------------------------------------|
G-7-7-7-7-4-4---------------------4-4-4-4-7-7---------------------|
D-5-5-5-5-2-2---------------------2-2-2-2-5-5-12*12*12*12*12*12*--|
A-5-5-5-5-2-2---------------------2-2-2-2-5-5---------------------|
D-5-5-5-5-2-2---------------------2-2-2-2-5-5---------------------|

Chorus: x4
e-------------------------------------|
B-------------------------------------|
G-7--7--7--7--7--7--4--4--4--4--4--4--|
D-5--5--5--5--5--5--2--2--2--2--2--2--|
A-5--5--5--5--5--5--2--2--2--2--2--2--|
D-5--5--5--5--5--5--2--2--2--2--2--2--|

Post-Chorus: x2
e---------------------------------------------------|
B---------------------------------------------------|
G-4-4-4-------7-7-7-7-7-7--4-4-4-------7-7-7-7-7-7--|
D-2-2-2-0-0-0-5-5-5-5-5-5--2-2-2-0-0-0-5-5-5-5-5-5--|
A-2-2-2-0-0-0-5-5-5-5-5-5--2-2-2-0-0-0-5-5-5-5-5-5--|
D-2-2-2-0-0-0-5-5-5-5-5-5--2-2-2-0-0-0-5-5-5-5-5-5--|

Bridge 1: x2
e-----------------------------------------------------------------|
B-----------------------------------------------------------------|
G-7-7-7-7-4-4---------------------4-4-4-4-7-7---------------------|
D-5-5-5-5-2-2-------(pause)-------2-2-2-2-5-5-------(pause)-------|
A-5-5-5-5-2-2---------------------2-2-2-2-5-5---------------------|
D-5-5-5-5-2-2---------------------2-2-2-2-5-5---------------------|

Bridge 2: x4
e----------------------|
B----------------------|
G-44--44--44--44--777--|
D-22--22--22--22--555--|
A-22--22--22--22--555--|
D-22--22--22--22--555--|


Bridge 3: x12
e------------------------------------------------------|
B------------------------------------------------------|
G--7-7-7-9-9-9-11-11-11-12-12-11-11-11-11-7-7-7-7-7-7--|
D--x-x-x-x-x-x-x--x--x--x--x--x--x--x--x--x-x-x-x-x-x--|
A--5-5-5-7-7-7-9--9--9--10-10-9--9--9--9--5-5-5-5-5-5--|
D------------------------------------------------------|

Ending:
e-----------------------|
B-----------------------|
G-44--44--44--44--777\--|
D-22--22--22--22--555\--|
A-22--22--22--22--555\--|
D-22--22--22--22--555\--|


| \  slide down
| *  harmonic
| x  Mute note
=============================================================================
Добавлено: 24.03.2012
Другие материалы по этой песне:
  • Аккорды и текст

Страница создана 24.03.2012
http://primanota.ru/dead-poetic/ollie-oston-chords.htm
Привет, Гость.
Предлагаем пройти революционный курс по гитаре.
Подарок от PrimaNota.Ru, забирай!