PrimaNota.ru - самый крупный в мире бесплатный архив песенных текстов, аккордов, табулатур и нот


Dead Poetic - Narcotic - текст песни, таба, бас-таба, видео

Регистрация Запомнить меня
Войти через:  Facebook Google Twitter Vk Yandex Mail.ru

Dead Poetic - Narcotic - текст песни, таба, бас-таба, видео

Печатать
Просмотров: 250
Уроки эстрадного вокала в Санкт-Петербурге
Intro
E[------------------------------------]
B[------------------------------------]
G[------------------------------------]
D[------------------------------------]
A[------------------------------------]x3
D[-2/2/2/5/5/5/2/2/2/5/5/5/8/8/7/7----]

E[-----------------------------------]
B[-----------------------------------]
G[-----------------------------------]
D[-----------------------------s<----]
A[-----------------------------s<----]
D[-2/2/2/5/5/5/2/2/2/2/2/2/2/2-s<----]

Verse 1
E[---------------------------------------]
B[---------------------------------------]
G[-----5-----5-----------5-----5-5-------]
D[-0-2-5-0-2-5-7--5--0-2-5-0-2-5-5--5----]
A[-0-2---0-2---7--5--0-2---0-2---3--5----]x2
D[-0-2---0-2---7--5--0-2---0-2------5----]

Pre-Chorus
E[------------------------------------------------------------------]
B[------------------------------------------------------------------]
G[------------------------------------------------------------------]
D[------------------------------------------------------------------]
A[------------------------------------------------------------------]
D[-8/8/8/7/7/7/8/8/8/7/7/7/5/5/5/5-8/8/8/7/7/7/10/10/10/10/10/10----]

Chorus
E[-----------------------]
B[-----------------------]
G[------------7---9-6----]
D[-2---4-5----x---x-x----]
A[-2---4-5----5---7-4----]x2
D[-2---4-5---------------]

Post-Chorus
E[------------------------------------]
B[------------------------------------]
G[------------------------------------]
D[------------------------------------]
A[------------------------------------]
D[-2/2/2/5/5/5/2/2/2/5/5/5/8/8/7/7----]

E[-----------------------------------]
B[-----------------------------------]
G[-----------------------------------]
D[-----------------------------s<----]
A[-----------------------------s<----]
D[-2/2/2/5/5/5/2/2/2/2/2/2/2/2-s<----]

Verse 2
(Same as Verse 1)

Pre-Chorus

Chorus 2
E[-----------------------]
B[-----------------------]
G[------------7---9-6----]
D[-2---4-5----x---x-x----]
A[-2---4-5----5---7-4----]x4
D[-2---4-5---------------]

Bridge
E[--------------------------------------------------------------------------]
B[--------------------------------------------------------------------------]
G[--------------------------------------------------------------------------]
D[--------------------------------------------------------------------------]
A[--------------------------------------------------------------------------]
D[-0/0/0/5/5/5/2/2/2/0/0/0/5/5/5/2/2/2/0/0/0/5/5/5/2/2/2/0/0/0/5/5/5/2/2/2--]

E[--------------------------------------------------------------------------]
B[--------------------------------------------------------------------------]
G[--------------------------------------------------------------------------]
D[--------------------------------------------------------------------------]
A[--------------------------------------------------------------------------]
D[-8/8/8/7/7/7/5/5/5/8/8/8/7/7/7/5/5/5/8/8/8/7/7/7/5/5/5/8/8/8/7/7/7/5/5/5--]

E[--------------------------------------------------------------------------]
B[--------------------------------------------------------------------------]
G[--------------------------------------------------------------------------]
D[--------------------------------------------------------------------------]
A[--------------------------------------------------------------------------]
D[-0/0/0/5/5/5/2/2/2/0/0/0/5/5/5/2/2/2/0/0/0/5/5/5/2/2/2/0/0/0/5/5/5/2/2/2--]

E[--------------------------------------------------------------------------]
B[--------------------------------------------------------------------------]
G[--------------------------------------------------------------------------]
D[--------------------------------------------------------------------------]
A[--------------------------------------------------------------------------]
D[-8/8/8/7/7/7/5/5/5/8/8/8/7/7/7/5/5/5/8/8/8/7/7/7/5/5/5/8/8/8/7/7/7/5/5/5--]

Chorus 3
E[-----------------------]
B[-----------------------]
G[------------7---9-6----]
D[-2---4-5----x---x-x----]
A[-2---4-5----5---7-4----]
D[-2---4-5---------------]

E[----------------------------]
B[----------------------------]
G[-----------------7---9-6----]
D[-2/2xx2/2-4-5----x---x-x----]
A[-2/2xx2/2-4-5----5---7-4----]
D[-2/2xx2/2-4-5---------------]

E[-----------------------]
B[-----------------------]
G[------------7---9-6----]
D[-2---4-5----x---x-x----]
A[-2---4-5----5---7-4----]x2
D[-2---4-5---------------]

Ending
E[------------------------------------]
B[------------------------------------]
G[------------------------------------]
D[------------------------------------]
A[------------------------------------]x4
D[-2/2/2/5/5/5/2/2/2/5/5/5/8/8/7/7----]


Добавлено: 02.04.2012
Другие материалы по этой песне:

Страница создана 24.02.2012
http://primanota.ru/dead-poetic/narcotic-chords.htm
Привет, Гость.
Предлагаем пройти революционный курс по гитаре.
Подарок от PrimaNota.Ru, забирай!