PrimaNota.ru - самый крупный в мире бесплатный архив песенных текстов, аккордов, табулатур и нот


Dead Poetic - Arlington Eyes - таба, видео

Регистрация Запомнить меня
Войти через:  Facebook Google Twitter Vk Yandex Mail.ru

Dead Poetic - Arlington Eyes - таба, видео

Печатать
Просмотров: 109
-------------------------------------------------------------------------------
                             Arlington Eyes - Dead Poetic
-------------------------------------------------------------------------------
Tabbed by:Vtrillo627
Email:it_dies_today84@yahoo.com

Tuning:Drop D


Intro:

e|-----------------1-----------------------1----------------|
B|-----------------3-----------------------3----------------|
G|-----------------3-----------------------3----------------| 
D|--1/-5\-3-3-3/-5-1--------1/-5\-3-3-3/-5-1-------3-3-3-1--|
A|--1/-5\-3-3-3/-5-1--------1/-5\-3-3-3/-5-1-------3-3-3-1--|
D|--1/-5\-3-3-3/-5-1--------1/-5\-3-3-3/-5-1-------3-3-3-1--|



Verse 1:

e|-------------------------------------|
B|-------------------------------------|
G|-------------------------------------| x8
D|---x-x-1-1-x-x-1-1-x-x-3-3-3-1-------|
A|---x-x-1-1-x-x-1-1-x-x-3-3-3-1-------|
D|---x-x-1-1-x-x-1-1-x-x-3-3-3-1-------|


e|--------------------|
B|--------------------|
G|--------------------| x4
D|--1--1-1-----3-3-3--|
A|--1--1-1-----3-3-3--|
D|--1--1-1-----3-3-3--|



Chorus:

e|-----------------1-----------|
B|-----------------3-----------|
G|-----------------3-----------| X4
D|--1/-5\-3-3-3/-5-1---3-3-3---|
A|--1/-5\-3-3-3/-5-1---3-3-3---|
D|--1/-5\-3-3-3/-5-1---3-3-3---|




Verse 2:

e|-------------------------------------|
B|-------------------------------------|
G|-------------------------------------| x8
D|---x-x-1-1-x-x-1-1-x-x-3-3-3-1-------|
A|---x-x-1-1-x-x-1-1-x-x-3-3-3-1-------|
D|---x-x-1-1-x-x-1-1-x-x-3-3-3-1-------|


e|--------------------|
B|--------------------|
G|--------------------| x4
D|--1--1-1-----3-3-3--|
A|--1--1-1-----3-3-3--|
D|--1--1-1-----3-3-3--|



Chorus:

e|-----------------1------------|    -----------------1--------------|
B|-----------------3------------|    -----------------3--------------|
G|-----------------3------------| X3 -----------------3----8/-10-----|
D|--1/-5\-3-3-3/-5-1----3-3-3---|    --1/-5\-3-3-3/-5-1----x--x--x4--|
A|--1/-5\-3-3-3/-5-1----3-3-3---|    --1/-5\-3-3-3/-5-1----6/-8------|
D|--1/-5\-3-3-3/-5-1----3-3-3---|    --1/-5\-3-3-3/-5-1--------------|



Bridge:

e|-----------------------------------------|    -----------------1--------|  
B|-----------------------------------------|    -----------------3--------|
G|-------------------------------8/-10-----| x5 -----------------3--------|
D|--1-1-1-1--0-0---1--1-3-3-3-3--x--x--x4--|    --1/-5\-3-3-3/-5-1--3-3-3-|
A|--1-1-1-1--0-0---1--1-3-3-3-3--6/-8------|    --1/-5\-3-3-3/-5-1--3-3-3-|
D|--1-1-1-1--0-0---1--1-3-3-3-3------------|    --1/-5\-3-3-3/-5-1--3-3-3-|



Verse 3:

e|-------------------------|
B|-------------------------|
G|-------------------------| x4
D|--1--1--1--1--1--1--3-3--|
A|--1--1--1--1--1--1--3-3--|
D|--1--1--1--1--1--1--3-3--|

e|--------------------|
B|--------------------|
G|--------------------| x4
D|--1--1-1-----3-3-3--|
A|--1--1-1-----3-3-3--|
D|--1--1-1-----3-3-3--|



Ending:

e|--------------------------------|
B|--------------------------------|
G|--8------10------7------10------|
D|--x-x6---x--x3---x--x6--x--x3---|
A|--6------8-------6------8-------|
D|--------------------------------|

e|--------------------------------------|
B|--------------------------------------|
G|--------------------------------------| x4
D|-1--x-x-1-1-x-x-1-1-x-x-3-3-3-1-------|
A|-1--x-x-1-1-x-x-1-1-x-x-3-3-3-1-------|
D|-1--x-x-1-1-x-x-1-1-x-x-3-3-3-1-------|




| /  slide up
| \  slide down
| h  hammer-on
| p  pull-off
| ~  vibrato
| +  harmonic
| x  Mute note
===============================================================================
Добавлено: 17.04.2012
Другие материалы по этой песне:
  • Аккорды и текст

Страница создана 17.04.2012
http://primanota.ru/dead-poetic/arlington-eyes-chords.htm
Привет, Гость.
Предлагаем пройти революционный курс по гитаре.
Подарок от PrimaNota.Ru, забирай!