PrimaNota.ru - самый крупный в мире бесплатный архив песенных текстов, аккордов, табулатур и нот


Dead Or Alive - You Spin Me Round - текст песни, таба, бас-таба, видео

Регистрация Запомнить меня
Войти через:  Facebook Google Twitter Vk Yandex Mail.ru

Dead Or Alive - You Spin Me Round - текст песни, таба, бас-таба, видео

Печатать
Просмотров: 171
Dead or Alive! – You Spin Me Round

This is my own punk version of the song so enjoy!

Intro & Verse Riff:

e|---------------------------------------|
B|---------------------------------------|
G|---------------------------------------|
D|-4-4--4--4-4-4-4-4--4-4--4--4-4-4-4-4--|
A|-4-4--4--4-4-4-4-4--4-4--4--4-4-4-4-4--|
E|-2-2--2--2-2-2-2-2--2-2--2--2-2-2-2-2--|

e|---------------------------------------|
B|---------------------------------------|
G|---------------------------------------|
D|-9-9--9--9-9-9-9-9--9-9--9--9-9-9-9-9--|
A|-9-9--9--9-9-9-9-9--9-9--9--9-9-9-9-9--|
E|-7-7--7--7-7-7-7-7--7-7--7--7-7-7-7-7--|

Interlude Riff:

e|--------------------------|--------------------------|--------------------------|
B|--------------------------|--------------------------|--------------------------|
G|--------------------------|--------------------------|--------------------------|
D|-4--4--4--4--4--4-4--4-4--|-7--7--7--7--7--7-7--7-7--|-9--9--9--9--9--9-9--9-9--|
A|-4--4--4--4--4--4-4--4-4--|-7--7--7--7--7--7-7--7-7--|-9--9--9--9--9--9-9--9-9--|
E|-2--2--2--2--2--2-2--2-2--|-5--5--5--5--5--5-5--5-5--|-7--7--7--7--7--7-7--7-7--|

e|-----------------------------|
B|-----------------------------|
G|-----------------------------|
D|-11—-11--11--11--2—-2—-2--2--|
A|-11—-11--11--11—-2--2--2--2--|
E|-9---9---9---9---0—-0—-0--0--|

Chorus Riff:

e|-------------------------------------------------|
B|-------------------------------------------------|
G|-------------------------------------------------|
D|-4--4--4--4--4--4--4--4--7--7--7--7--2--2--2--2--|
A|-4--4--4--4--4--4--4--4--7--7--7--7—-2-—2--2--2--|
E|-2--2--2--2--2--2--2--2--5--5--5--5—-0--0--0--0--|

e|-------------------------------------------------|
B|-------------------------------------------------|
G|-------------------------------------------------|
D|-4--4--4--4--4--4--4--4--9--9--9--9--2--2--2--2--|
A|-4--4--4--4--4--4--4--4--9--9—-9-—9--2-—2--2--2--|
E|-2--2--2--2--2--2--2--2--7--7--7--7—-0--0--0--0--|

End of Chorus Riff:

e|-------------------------------------------------------|
B|-------------------------------------------------------|
G|-11—-11—-11--11--9-9--9--9-9--7--7--7--7--6-6--6--6-6--|
D|-11—-11—-11--11--9-9--9--9-9--7--7--7--7--6-6--6--6-6--|
A|-9---9—--9---9---7-7--7--7-7--5--5--5--5--4-4--4--4-4--|
E|-------------------------------------------------------|

e|-------------------------------------------------|
B|-------------------------------------------------|
G|-4--4--4--4--4--4--4—-4--6--6--6--6--6--6--6--6--|
D|-4--4--4--4--4--4--4--4--6--6--6--6--6--6--6--6--|
A|-2--2--2--2--2--2--2--2--4--4--4--4--4--4--4--4--|
E|-------------------------------------------------|

There the riffs for a punk version! Just put them in the right order & it's perfect & 
cool! I love my metal but a bit of Dead or Alive doesn't go astray with me!

"You spin me right round, baby,
right round, like a record baby,
right round, right round!"
Добавлено: 18.07.2012
Другие материалы по этой песне:
  • Аккорды и текст

Страница создана 13.03.2012
http://primanota.ru/dead-or-alive/you-spin-me-round-chords.htm
Привет, Гость.
Предлагаем пройти революционный курс по гитаре.
Подарок от PrimaNota.Ru, забирай!