PrimaNota.ru - самый крупный в мире бесплатный архив песенных текстов, аккордов, табулатур и нот


Dead Moon - Unknown Passage - аккорды и текст, видео

Регистрация Запомнить меня
Войти через:  Facebook Google Twitter Vk Yandex Mail.ru

Dead Moon - Unknown Passage - аккорды и текст, видео

Печатать
Просмотров: 48
Уроки эстрадного вокала в Санкт-Петербурге
Unknown Passage
Dead Moon
Unknown Passage (Fred Cole)

Version from "Crack In The System" LP!

CHORDS:
E|--------------------------------------------------|
B|-3-----3----3-------3------------------------3----|
G|-2-----0----0-------2------------------------2----|
D|-0-----2----0-------0-----0-0h3/0-0-0-----0--0----|
A|-0-----3----2-------0-0-3----------3---0-3---0----|
E|--------------------------------------------------|
   D   Cadd9  Em7     D (+riff)


[Intro]

E|-6/5-------------------------------------------------------|
B|-----6/5---5h6-5--5/3--2/3-3-3------------------------3----|
G|---------------------------2-2------------------------2----|
D|---------------------------0-0------0-0h3/0-0-0-----0-0----|
A|-----------------------------0--0-3----------3---0-3--0----|
E|------------------------------------------------------0----|

E|-----------------------------------------------------------|
B|-3h5-5h6--6--5-5-5h6/5--3-2-3------------------------------|
G|----------------------------2------------------------------|
D|----------------------------0-------0-0h3/0-0-0-0-----0----|
A|----------------------------0---0-3------------3---0-3-----|
E|-----------------------------------------------------------|


D
There's a red light on the hill
Cadd9       Em7              D +riff
     And a bridge out going down
D
There's a city limits marker
Cadd9      Em7         D +riff
     Of an unfamiliar town
D
With my head slightly bent
Cadd9     Em7            D +riff
    I can see it in the lights

D
Unknown passage
Cadd9           Em7               D +riff
Cuttin' like a knife through the night


D
Headlights on the highway
Cadd9           Em7         D +riff
     There's a mist coming down
D
I can hear someone crying
Cadd9 Em7              D +riff
         I know that sound
D
It's the morning before daybreak
Cadd9           Em7            D +riff
     A hundred miles down the line

D
Unknown passage
Cadd9           Em7               D
Cuttin' like a knife through the night


[Solo]


D
Asked "Where are you going?"
Cadd9  Em7             D +riff
      Somewhere  far away
D
She was standing at the window
Cadd9   Em7              D +riff
     I won't forget her face
D
With my suitcase and my old car
Cadd9     Em7               D  +riff
     I'm driving somewhere blind

D
Unknown passage
 Cadd9          Em7               D +riff
Cuttin' like a knife through the night
 Cadd9          Em7             D +riff
Cuttin' like a knife through my eyes


Cadd9  Em7  D


END!

Tabbed by deadmoony

Dead Moon:
Fred Cole-  Guitar, Vocals
Toody Cole-  Bass, Vocals
Andrew Loomis- Drums

"Unknown Passage" on "Crack In The System" LP (Tombstone Records, T-55, 1994)



************************************

| h  Hammer-on
| /  Slide up 

************************************
Добавлено: 31.05.2017
Другие материалы по этой песне:
  • Аккорды и текст

Страница создана 10.07.2012
http://primanota.ru/dead-moon/unknown-passage-chords.htm
Привет, Гость.
Предлагаем пройти революционный курс по гитаре.
Подарок от PrimaNota.Ru, забирай!