PrimaNota.ru - самый крупный в мире бесплатный архив песенных текстов, аккордов, табулатур и нот


Dead Moon - Running Out of Time - аккорды и текст, видео

Регистрация Запомнить меня
Войти через:  Facebook Google Twitter Vk Yandex Mail.ru

Dead Moon - Running Out of Time - аккорды и текст, видео

Печатать
Просмотров: 135
Running Out of Time
Dead Moon
Running Out Of Time (Fred Cole)


Em G D C  (4x)


Em              G       D
There ain't no mystery here
         C          Em G D C
We just try to get by
No use in having a plan
They'll only cut up you sky
You can't open their eyes
Once you give in to the lie
Em G      D               C
Baby, I know we're running out of time


CHORUS:
Em   G D         C      Em
Run run running out of time   (3x)


Em G D C  (2x)


We've seen them come and go
There's been so many I know
We used to feel like that a long, long time ago
We ain't really so different
We're all walking the line
And baby, we too are running out of time


CHORUS (3x)

Em G D C


SOLO:
E|--------------------------------------------------|
B|--12-12--12-10—10-10-8-7-7/8/7-5--5-5-5/3-0-3-5-5-|
G|--------------------------------------------------|   (2x)
D|--------------------------------------------------|
A|--------------------------------------------------|
E|--------------------------------------------------|


E|-------------------------------------------------|
B|-------------------------------------------------|
G|--4-4--4-2-2-2-0---------------------------------|  (1x)
D|-----------------4-4/5/4-2--2/4--4/5--5/7--7/9-9-|
A|-------------------------------------------------|
E|-------------------------------------------------|


E|----------------------------------------------------|
B|--12-12--12-10—10-10-8-7-7/8/7-5--5-5-5-3-0-3-5-3-0-|
G|----------------------------------------------------|
D|----------------------------------------------------|
A|----------------------------------------------------|
E|----------------------------------------------------|

Em G D C (2x)


We ain't the first to be braced
And we won't be the last
By the moment we'd stop
It's already gone past
We've been living a thrill
In the blink of an eye
But baby, we too are running out of time


CHORUS (3x)


Em G D C (2x)


CHORUS (3x)




CHORDS:

E|---0---0---0---0-|
B|---0---0---3---1-|
G|---0---0---2---0-|
D|---2---0---0---2-|
A|---2---2---0---3-|
E|---0---3---0---0-|
    Em   G   D   C




Dead Moon:
Fred Cole-  Guitar, Vocals
Toody Cole-  Bass, Vocals
Andrew Loomis- Drums

‎"Running Out Of Time" on "Nervous Sooner Changes" LP (Music Maniac Records, MMLP 066, 1995)
Добавлено: 17.02.2014
Другие материалы по этой песне:
  • Аккорды и текст

Страница создана 11.04.2012
http://primanota.ru/dead-moon/running-out-of-time-chords.htm
Привет, Гость.
Предлагаем пройти революционный курс по гитаре.
Подарок от PrimaNota.Ru, забирай!