PrimaNota.ru - самый крупный в мире бесплатный архив песенных текстов, аккордов, табулатур и нот


Dead Moon - Graveyard - аккорды и текст, видео

Регистрация Запомнить меня
Войти через:  Facebook Google Twitter Vk Yandex Mail.ru

Dead Moon - Graveyard - аккорды и текст, видео

Печатать
Просмотров: 178
Уроки эстрадного вокала в Санкт-Петербурге
Graveyard
Dead Moon
Graveyard (Fred Cole)



INTRO:

E|----------------------------------------|
B|-12-12-11/12-12--11-12-12-12---11-12-12-|
G|-15-15-15-15-15--15-15-15-12---11-15-15-|
D|----------------------------------------|
A|----------------------------------------|
E|----------------------------------------|

Em G D A (3x)

        Em        G
It's a new game, causing pain
      D               A      Em G D A
You know I've got you on my brain
It's the kind of hell you'll never know
Girls like you just turn me cold
But I guess you found my weaker side
Resistance, God how I tried
But I've got it bad I must confess
To tell the truth I've done my best


CHORUS:

          Em
But you treat me like poison
A
Even with the lights on
B
Guess I might as well be dead
                 Em G D A
Oh, I'm in the graveyard


Em G D A


Em               G
Tried whiskey to ease your hex
     D                A        Em G D A
It made it worse, my life's a wreck
The pills I took to numb my pain
Only brought visions of you again
I'd put the noose around my neck
But the way I feel, I'd probably break
Love must be an evil curse
I've tried to fight, It just gets worse


CHORUS


SOLO:

E|-0-0------------------------------------------|
B|-0-------------------0---0-0-0-0--0---0-------|
G|-0---0-2-2/4-4-2-0-0-0-2-0-0-0-0--0---0-------|
D|-2-2---------------2-2---2-2-2-2--2---2-------|
A|-2-------------------2---2-2-2-2--2---2-------|
E|-0-0-----------------0---0-0-0-0--0-3-0-------|


      Em
Your love is like an endless hell
         Em
What you do to me you know too well
     Em
You won't give me the time
    C
I'm on the firing line
    Em
Convicted and disposed
     C
You look but eyes are closed

B
Guess I might as well be dead
                 Em G D A
Oh, I'm in the graveyard

                 Em G D A
Oh, I'm in the graveyard
I'm in the graveyard
I'm in the graveyard
I'm in the graveyard


Em G D A (4x)


End in Em





CHORDS:

E|--0-----------------------|
B|--0---0---3--0---1---7----|
G|--0---0---2--2---0---8----|
D|--2---0---0--2---2---9----|
A|--2---2---0--0---3---9----|
E|--0---3---0--0---0---7----|
    Em  G   D  A   C   B




Dead Moon:
Fred Cole-  Guitar, Vocals
Toody Cole-  Bass, Vocals
Andrew Loomis- Drums (here: Louis Samora)


Tabbed by: Deadmoony


"Graveyard" on "In The Graveyard" LP (Tombstone Records, T-11, 1988) and "Echoes Of The 
Past"(Sub Pop 2CD Compilation)
Добавлено: 17.02.2014
Другие материалы по этой песне:
  • Аккорды и текст

Страница создана 28.07.2012
http://primanota.ru/dead-moon/graveyard-chords.htm
Привет, Гость.
Предлагаем пройти революционный курс по гитаре.
Подарок от PrimaNota.Ru, забирай!