PrimaNota.ru - самый крупный в мире бесплатный архив песенных текстов, аккордов, табулатур и нот


Dead Moon - Demona - аккорды и текст, видео

Регистрация Запомнить меня
Войти через:  Facebook Google Twitter Vk Yandex Mail.ru

Dead Moon - Demona - аккорды и текст, видео

Печатать
Просмотров: 85
Уроки эстрадного вокала в Санкт-Петербурге
Demona
Dead Moon
Demona (Fred Cole)

INTRO:
A  C#m  (2x)

A            C#m               A      C#m
I thought I could avoid you but I was wrong
A              C#m           A               C#m   
What seemed to be so innocent has long since gone
D           E           A                   D   D  A
You took me to dependency, I tried to get clean
D           E                A                    D   D A 
I'm not the only one who sais it can't happen to me
E                E7            A    C#m  A   C#m
You've got your colors over my eyes


A             C#m                 A        C#m
I've tried to walk the narrows but it's no use
A         C#m             A                C#m
I find myself surrendering in dreams with you
D        E               A               D    D  A
Into the elevations where everything's clear
D       E                A              D    D  A
Demona comes in shallow light and disappears
E             E7             A    C#m  A   C#m
She wraps her colors over my eyes
 

SOLO:
E|-------------------------
B|-------------------------
G|-------------------------  (2x)
D|-------------------------
A|-7-7-7------------7-7----
E|--9-9-9-7-5--5-5-9---9-9-

E|--------------------------------------
B|--------------------------------------
G|--------------------------------------  (2x)
D|--------------------------------------  
A|-12-12-12-11-11-9-7-7--7-7-7-7-9------
E|----------------------------9---9-9-9-

E|-----------------
B|---------------5-
G|---------------6-
D|---------------7-
A|---------------7-
E|-7-7-7-9-9-9-7-5-
                 A

A C#m  (2x)

A             C#m             A            C#m
I've stood in open windows and watched the sky
A           C#m              A           C#m
I've waited to be rescued and then I've cried
D              E          A                D  D  A
your eyes are so beguiling you whisper to me
D            E                  A         D  D  A
And in that silent chamber you came over me
E             E7             A     C#m
You wrap your colors over my eyes
E             E7             A     C#m
You wrap your colors over my eyes

E D A

(END)


CHORDS:

E|---------------------   
B|--5---5---7---9---7--   
G|--6---6---7---9---7-- 
D|--7---6---7---9---7--         
A|--7---4---5---7---7--   
E|--5---4---5---7---7-- 
    A   C#m D   E   E7

or:

E|---------------------   
B|--2---5---3----------   
G|--2---6---2---1---1-- 
D|--2---6-------2------         
A|--------------2---2--  
E|--------------------- 
    A   C#m D   E   E7

Dead Moon: 
Fred Cole-  Guitar, Vocals 
Toody Cole-  Bass, Vocals  
Andrew Loomis- Drums 

"Demona" on "Unknown Passage"  (Tombstone T-25, 1989, M'lady's Records, Mississippi Records)
Добавлено: 04.05.2016
Другие материалы по этой песне:
  • Аккорды и текст

Страница создана 01.05.2012
http://primanota.ru/dead-moon/demona-chords.htm
Привет, Гость.
Предлагаем пройти революционный курс по гитаре.
Подарок от PrimaNota.Ru, забирай!