PrimaNota.ru - самый крупный в мире бесплатный архив песенных текстов, аккордов, табулатур и нот


Dead Moon - Dead Moon Night - аккорды и текст, видео

Регистрация Запомнить меня
Войти через:  Facebook Google Twitter Vk Yandex Mail.ru

Dead Moon - Dead Moon Night - аккорды и текст, видео

Печатать
Просмотров: 401
Dead Moon Night
Dead Moon
Dead Moon Night (Fred Cole)


INTRO:

E|-0-0-0-0-0-0-0---0-0-0-0-0-0-0---0-0-0-0-0-0--0-0-0-0-0-0--|
B|-5-5-5-3-0-3-5---5-5-5-3-0-3-5---5-5-5-3-0-3--5-5-5-3-0-3--|
G|-----------------------------------------------------------|
D|-----------------------------------------------------------|
A|-----------------------------------------------------------|
E|-----------------------------------------------------------|


E|-0-0-0-0-0-0--0--0/0/0--0/0/0-|
B|-5-5-5-3-0-3--5--5/6/5--5/6/5-|
G|------------------------------|    (2x)
D|------------------------------|
A|------------------------------|
E|------------------------------|



D Em (5x)


Em                           D Em
Thunderbolts and nightsticks
Coming out of the sky
Flames overhead
Rain until you cry
My baby's on the highway
Come in from the cold
Em                 Em
Never going home, never going home



CHORUS:


C
D for disaster
D
E for my eyes
Em
A for my anger
Em
D before I die
C
M for Mona
D
O oh good
Em
O oh good
Em
N for the night
Em
Dead Moon Night
Em
Dead Moon Night


D Em (3x)


Call me if you need me
Down in New Orleans
Can't release the victims
Have you seen what I've seen
In New York City
Don't you cross the line
Guard it from the light, guard it from the light


CHORUS


Em D (+SOLO)


Repeat INTRO


Hazard on the highway
Breakin' down slow
They thought she was lookin'
Now I'm all alone
I'm often abandoned
Won't you take me home
Now I'm all alone, won't you take me home


CHORUS (2x)

Em
Dead Moon Night
Dead Moon Night
Dead Moon Dead
Dead Moon Night

Em D C D Em






CHORDS:

E|---0---0---0--|
B|---3---0---1--|
G|---2---0---0--|
D|---0-- 2---2--|
A|---0---2---3--|
E|---0---0---0--|
     D   Em  C





Dead Moon:
Fred Cole-  Guitar, Vocals
Toody Cole-  Bass, Vocals
Andrew Loomis- Drums


Tabbed by: Deadmoony


"Dead Moon Night" on "Unknown Passage" LP (Tombstone Records, T-25, 1993) "Echoes Of The 
Past"(Sub Pop 2CD Compilation)and "Live Evil" (Music Maniac Records,MMLP 038, 1991)
Добавлено: 26.12.2013
Другие материалы по этой песне:
  • Аккорды и текст

Страница создана 02.07.2012
http://primanota.ru/dead-moon/dead-moon-night-chords.htm
Привет, Гость.
Предлагаем пройти революционный курс по гитаре.
Подарок от PrimaNota.Ru, забирай!