PrimaNota.ru - самый крупный в мире бесплатный архив песенных текстов, аккордов, табулатур и нот


Dead Moon - Day After Day - аккорды и текст, видео

Регистрация Запомнить меня
Войти через:  Facebook Google Twitter Vk Yandex Mail.ru

Dead Moon - Day After Day - аккорды и текст, видео

Печатать
Просмотров: 201
Day After Day
Dead Moon
Day After Day (Fred Cole)


Intro:  

D Em  (2x) +
 
                                                           
E|-------------------------------------------------------------------------|
B|--3-2-3----3-2-3---3-2-3-----------3-2-3-3-2-3-5-7-5---------------------|
G|---------2-------4-------2--4-3-4--------------------4-4-4-2-2--2-2--2-2-|
D|---------------------------------2---------------------------------------|
A|-------------------------------------------------------------------------|
E|-------------------------------------------------------------------------|
    
E|-----------------------|
B|-----------------------|
G|---0-------------------|
D|-----4-2-2-2-5-5-4-2---|
A|-----------------------|
E|-----------------------|


D  Em (2x)

D                Em
Day after day we threw our cares away
Waiting for tomorrow, never living for today
We lined up in the trenches, holding higher ground
We looked away for answers but nothing could be found

(chorus)
      D          Em          G       D
And i swear, we won't keep standing still
 Em      G         D
Here to take your heat
The rain's about to fall
We're taking to the streets...    Em D Em

Day after day nothing ever changed
Was it any wonder we all began to stray
Some of us for money, some of us for fame
Our goals were so impossible no one could take aim

(chorus + intro/solo)

Day after day the hours wore away
Regretting what we'd missed, closer to the grave
We're the broken generation, we don't know who we are
Fought for every losing cause and now we hide the scars

(chorus)

Em D Em (3x)

(chorus)

Em D Em (2x)



CHORDS:  
                                                  
E|---0---0---0--
B|---3---0---0-- 
G|---2---0---0--
D|---0-- 2---0-- 
A|---0---2---2--
E|---0---0---3--
     D   Em  G  



Dead Moon: 
Fred Cole-  Guitar, Vocals 
Toody Cole-  Bass, Vocals  
Andrew Loomis- Drums 

"Day After Day" on Crack In The System LP (Tombstone Records, 1994)
Добавлено: 14.12.2013
Другие материалы по этой песне:
  • Аккорды и текст

Страница создана 20.03.2012
http://primanota.ru/dead-moon/day-after-day-chords.htm
Привет, Гость.
Предлагаем пройти революционный курс по гитаре.
Подарок от PrimaNota.Ru, забирай!