PrimaNota.ru - самый крупный в мире бесплатный архив песенных текстов, аккордов, табулатур и нот


Dead Milkmen - Spit Sink - текст песни, бас-таба, видео

Регистрация Запомнить меня
Войти через:  Facebook Google Twitter Vk Yandex Mail.ru

Dead Milkmen - Spit Sink - текст песни, бас-таба, видео

Печатать
Просмотров: 155
-----------------------------------------------------------------------------
			Dead Milkmen - Spit Sink
-----------------------------------------------------------------------------

Tabbed by: Tom Chalifour (oodlesofnoodles87@hotmail.com)
Riff changed by: Ben Gladdle (moose9377@hotmail.com)

Pretty simple but cool (at least in my opinion).

Ben: Yes, I'm rude and keep changing stuff, but I change my own
tabs all the time, so there. We all make mistakes. I changed
the riff section of this to match the guitar tab. Like that one,
it's an approximation, but a slight improvement.


Verse:
  E       C       G       D
G---------------------------|
D---------------------------|
A---------3---------------5-|
E-0---------------3---------|

Chorus:
  E
G---------------------------|
D---------------------------|
A---------------------------|
E-0-------0-------0-------0-|

Riff:
G------------------------------|
D------------------------------|
A----7-7-7-6-6-6-5-5-5---------|
E----------------------8-8-8---|

G------------------------------|
D----------5-5-5-7-7-7---------|
A----7-7-7-------------9-9-9---|
E------------------------------|

Repeat the last two lines twice normaly and as many
times needed in the last freak out part.

End on E.


From the Dead Milkmen Guitar Tab Project
http://www.geocities.com/dmtabs/

=============================================================================
Добавлено: 11.05.2012
Другие материалы по этой песне:
  • Аккорды и текст

Страница создана 28.04.2012
http://primanota.ru/dead-milkmen/spit-sink-chords.htm
Привет, Гость.
Предлагаем пройти революционный курс по гитаре.
Подарок от PrimaNota.Ru, забирай!