PrimaNota.ru - самый крупный в мире бесплатный архив песенных текстов, аккордов, табулатур и нот


Dead Milkmen - Peter Bazooka - текст песни, бас-таба, видео

Регистрация Запомнить меня
Войти через:  Facebook Google Twitter Vk Yandex Mail.ru

Dead Milkmen - Peter Bazooka - текст песни, бас-таба, видео

Печатать
Просмотров: 151
Уроки эстрадного вокала в Санкт-Петербурге
Авторы: Dave Schulthise, Dean Sabatino, Joe Genaro, Rodney Linderman

Peter Bazooka
Dead Milkmen

Verse Pt 1.:
-----------
   E         G  F#        A
G---------------------------------|
D--2-2----------------------------|
A---------------------------------|
E------------3--2---2-2---5-5-5---|


Verse Pt 2.:
-----------
   E                 F   F#  G
G---------------------------------------|
D---------------------------------------|
A---------------------------------------|
E--0-0-0-0-0-0-0-0-0-1-1-2-2-3-3-3------|


Alternate Verse:  (There's a super secret...)
---------------
   E                 F   F#  G
G---------------------------------------|
D--2-2-2-2-2-2-2-2-2-3-3-4-4-5-5-5------|
A---------------------------------------|
E---------------------------------------|


Chorus:
------
   C#
G-------------------------|
D-------------------------|
A--4-4-4-...--------------|
E-------------5-5-5-...---|


Play chorus to fade.
Добавлено: 29.03.2012
Другие материалы по этой песне:
  • Аккорды и текст

Страница создана 06.03.2012
http://primanota.ru/dead-milkmen/peter-bazooka-chords.htm
Привет, Гость.
Предлагаем пройти революционный курс по гитаре.
Подарок от PrimaNota.Ru, забирай!