PrimaNota.ru - самый крупный в мире бесплатный архив песенных текстов, аккордов, табулатур и нот


Dead Milkmen - Nutrition - текст песни, бас-таба, видео

Регистрация Запомнить меня
Войти через:  Facebook Google Twitter Vk Yandex Mail.ru

Dead Milkmen - Nutrition - текст песни, бас-таба, видео

Печатать
Просмотров: 127
-----------------------------------------------------------------------------
			 Dead Milkmen - Nutrition
-----------------------------------------------------------------------------

Tabbed by: Ben Gladdle (moose9377@hotmail.com)

OK, I thought the bass for this sounded pretty damn funky,
so I gave it a shot. That intro/verse riff is pretty scary
(and kinda difficult to play at the right speed!), but I
think it's right.


Main Riff(s):
------------
    C             F
G------5--3-3-5------5--3-3-5---|
D-----------------3-------------| Intro1
A---3---------------------------|
E-------------------------------|

    C             F
G------5--3-3-5------5-3--3-5---|
D-----------------3-------------| Intro2 &
A---3---------------------------| Verse
E-------------------------------|

    C             F
G------5--3-3-5--10--9-7--3-5---|
D-------------------------------| Verse
A---3---------------------------| Variation
E-------------------------------|

There are 3 parts here that are pretty similar. I'm not 100%
sure of the 3rd part, but it's something much like it. The
different parts are used as follows:

Intro: Part 1, Part 2 ...
Verse: Part 2 ...
Verse2: Part 2, Part 3, Part 2 ...
Verse2: Part 2, Part 3, Part 2 ...


Chorus:
------
   Ab      Bb      Ab      Bb      Ab      Bb      C
G-----------------------------------------------------------|
D-----------------------------------------------------------|
A--------------------------------------------------3-3-etc.-|
E--4-4-4-4-6-6-6-6-4-4-4-4-6-6-6-6-4-4-4-4-6-6-6-6----------|

   Ab     Bb     Ab     Bb     Ab     Bb     Eb
G-----------------------------------------------------------|
D-----------------------------------------------------------|
A--------------------------------------------------6-6-etc.-|
E--4-4-4-4-6-6-6-6-4-4-4-4-6-6-6-6-4-4-4-4-6-6-6-6----------|


Bridge:
------
   Eb    Db    Db    B     Eb    Db    Db    Ab
G----------------------------------------------------------|
D----------------------------------------------------------|
A--6-6..-4-4..-4-4..-2-2..-6-6..-4-4..-4-4..---------------|
E--------------------------------------------4-4..-4-4..---|

   Ab          Ab          Gb
G---------------------------------------------|
D---------------------------------------------|
A---------------------------------------------|
E--2/4-4....-4-2/4-4....-4-2-2....-2-2....----|

I didn't put the exact number of notes here, cause it would
have taken up too much room. It's easy to figure where the
changes are anyway.


Ending:
------
   Eb      Ab      Eb      Ab      Eb      Ab      Eb
G----------------------------------------------------------|
D----------6-6-6-6---------6-6-6-6---------6-6-6-6---------|
A--6-6-6-6---------6-6-6-6---------6-6-6-6---------6-------|
E----------------------------------------------------------|

End on Eb.


From the Dead Milkmen Guitar Tab Project
http://www.geocities.com/dmtabs/

=============================================================================
Добавлено: 26.04.2012
Другие материалы по этой песне:
  • Аккорды и текст

Страница создана 26.04.2012
http://primanota.ru/dead-milkmen/nutrition-chords.htm
Привет, Гость.
Предлагаем пройти революционный курс по гитаре.
Подарок от PrimaNota.Ru, забирай!