PrimaNota.ru - самый крупный в мире бесплатный архив песенных текстов, аккордов, табулатур и нот


Dead Milkmen - Lucky - текст песни, бас-таба, видео

Регистрация Запомнить меня
Войти через:  Facebook Google Twitter Vk Yandex Mail.ru

Dead Milkmen - Lucky - текст песни, бас-таба, видео

Печатать
Просмотров: 123
-----------------------------------------------------------------------------
			  Dead Milkmen - Lucky
-----------------------------------------------------------------------------

Tabbed by: Ben Gladdle (moose9377@hotmail.com)

Verse:
-----
     C       B       A       Ab
G--------5-------5-------5-------5--|
D-----------------------------------|
A----3-------3-------3-------3------|
E-----------------------------------|

The higher stuff throws me out on this one (as it always does
on my guitar)... I think it's just back and forth on C like that.


Chorus:
------
    G
G-------------------------------|
D---5---------------------------|
A------------------3--4--5------|
E---------3--4--5---------------|


Interlude:     (0:55)
---------

G------------------------------------|
D------------------------------------|
A---2---3---------------5---4--------|
E-----------4---3---0-----------4----|

Interlude 2:   (1:20)
-----------

G------------------------------------|
D------------------------------------|
A---2---4---6---5--------------------|
E-------------------4---5---3---2----|


From the Dead Milkmen Guitar Tab Project
http://www.geocities.com/dmtabs/

=============================================================================
Добавлено: 20.05.2012
Другие материалы по этой песне:
  • Аккорды и текст

Страница создана 20.05.2012
http://primanota.ru/dead-milkmen/lucky-chords.htm
Привет, Гость.
Предлагаем пройти революционный курс по гитаре.
Подарок от PrimaNota.Ru, забирай!