PrimaNota.ru - самый крупный в мире бесплатный архив песенных текстов, аккордов, табулатур и нот


Dead Milkmen - Little Man In My Head - текст песни, бас-таба, видео

Регистрация Запомнить меня
Войти через:  Facebook Google Twitter Vk Yandex Mail.ru

Dead Milkmen - Little Man In My Head - текст песни, бас-таба, видео

Печатать
Просмотров: 140
-----------------------------------------------------------------------------
		      Dead Milkmen - Little Man In My Head
-----------------------------------------------------------------------------

Tabbed by: Ben Gladdle (moose9377@hotmail.com)

The verse riff for this one is very nifty.

Verse:
-----

G------------------------------------|
D------------3----------------2------|
A---5--5-5-5---------------3---------|
E-----------------5--5--5------------|

G------------------------------------|
D------------3-----------------------|
A---5--5-5-5------------5--3---------|
E-----------------3--3---------------|

Chorus:
------
   Bb        A G F   A       Bb          F     A       Bb    C
G-------------------------------------------------------------------|
D--------------------------------------------------0-0--------------|
A--1-1-1-1-1-0-------0-0-0-0-1-1-1-1-1-1-------0-0-----1-1-1-3-3-3--|
E--------------3-1-1---------------------1-1-1----------------------|

Not exact numbers, but it's easy to figure out.


Instrumental/Mumbling Bit:
-------------------------

G------------------------------------|
D---3--3-3-3------------------2------|
A------------5-------------3---------|
E-----------------5--5--5------------|

G------------------------------------|
D------------3-----------------------|
A---5--5-5-5------------5--3---------|
E-----------------3--3---------------|

Basically the same as the verse, but the first half of the first line
is reversed during some parts. Easy to figure out which are reversed
and which are just the same as the verse.

End on a D.

From the Dead Milkmen Guitar Tab Project
http://www.geocities.com/dmtabs/
=============================================================================
Добавлено: 19.07.2012
Другие материалы по этой песне:
  • Аккорды и текст

Страница создана 16.03.2012
http://primanota.ru/dead-milkmen/little-man-in-my-head-chords.htm
Привет, Гость.
Предлагаем пройти революционный курс по гитаре.
Подарок от PrimaNota.Ru, забирай!