PrimaNota.ru - самый крупный в мире бесплатный архив песенных текстов, аккордов, табулатур и нот


Dead Milkmen - If I Had A Gun - текст песни, бас-таба, видео

Регистрация Запомнить меня
Войти через:  Facebook Google Twitter Vk Yandex Mail.ru

Dead Milkmen - If I Had A Gun - текст песни, бас-таба, видео

Печатать
Просмотров: 138
-----------------------------------------------------------------------------
			Dead Milkmen - If I Had A Gun
-----------------------------------------------------------------------------

Tabbed by: Ben Gladdle (moose9377@hotmail.com)

Verse:
-----
    Bm              G       Bm
G------------------------------------|
D-----4---4---4---4-----------4---4--|
A---2---2---2---2-----5---5-2---2----|
E-------------------3---3------------|

But the last time in each verse...

    Bm              G       Bm
G---------------------7---7----------|
D-----4---4---4---4-5---5-----4---4--|
A---2---2---2---2-----------2---2----|
E------------------------------------|


Chorus:
------
    G
G-----------------------------------|
D-----------------------------------|
A-----------------/-5-5-----5-5-----|
E---3-3-----3-3---------------------|
    if i....

    Bm      G       Bm
G-----------------------------------|
D-----------------------------------|
A---2-2-------------2-2-----0-------|
E-----------3-3-----------------3---|

    D               G
G-----------------------------------|
D-----------------------------------|
A---5-5----3---2--------------------|
E-------------------3-3-----3-3-----|
    if i...

    D       G       D       G
G-----------------------------------|
D-----------------------------------|
A---5-5-------------5-5-------------|
E-----------3-3-------------3-3-----|


Solo:
----
    Bm              G       Bm
G------------------------------------|
D-----4---4---4---4-----------4---4--|
A---2---2---2---2-----5---5-2---2----|
E-------------------3---3------------|

    Bm              G       D
G------------------------------------|
D-----4---4---4---4-----------7---7--|
A---2---2---2---2-----5---5-5---5----|
E-------------------3---3------------|

    G       Bm      G       Bm      G       Bm      G
G---------------------------------------------------------------|
D---------------------------------------------------------------|
A-----------2---2-----------2---------------2---------5---5-...-|
E---3---3-----------3---2-------3---3---2-------3---3---3-------|

    A
G--------------------|
D--------------------|
A-----7---7---7-...--|
E---5---5---5--------|

The solos do end differently, though. On the 1st time through,
end it as shown above. Second time round, end it (and the song)
with a single Bm instead of the A bit.

From the Dead Milkmen Guitar Tab Project
http://www.geocities.com/dmtabs/
=============================================================================
Добавлено: 30.03.2012
Другие материалы по этой песне:
  • Аккорды и текст

Страница создана 30.03.2012
http://primanota.ru/dead-milkmen/if-i-had-a-gun-chords.htm
Привет, Гость.
Предлагаем пройти революционный курс по гитаре.
Подарок от PrimaNota.Ru, забирай!