PrimaNota.ru - самый крупный в мире бесплатный архив песенных текстов, аккордов, табулатур и нот


Dead Milkmen - I Hate You I Love You - текст песни, бас-таба, видео

Регистрация Запомнить меня
Войти через:  Facebook Google Twitter Vk Yandex Mail.ru

Dead Milkmen - I Hate You I Love You - текст песни, бас-таба, видео

Печатать
Просмотров: 228
-----------------------------------------------------------------------------
	          Dead Milkmen - I Hate You, I Love You
-----------------------------------------------------------------------------

Tabbed by: Ben Gladdle (moose9377@hotmail.com)

Pretty simple, but it's a great song, so don't worry. I haven't
showed exact number of notes cause it's hard to hear some times.
For the verses it's really quick, so single notes should suffice,
but other times, just go with it and do what you feel like.

Intro:
-----

G-----------|
D------3----| (x4)
A---3-------|
E-----------|

Verse:
-----

G---------------|--------------|--------------|--------------|
D---------2-----|--------------|--------------|--------------|
A---3--0--------|--3--0--------|-----3-----0--|-----0--------|
E------------3--|--------0--1--|--1-----1-----|--1-----3--1--|

Chorus:
------

G-----------|
D---3-------| (x4)
A------3----|
E-----------|

Solo:
----

G---------------|--------------|--------------|--------------|
D------5--------|-----5--------|--------------|--------------|
A---3-----------|--3-----------|--0-----0--1--|--0-----0-----|
E---------5--1--|--------0--1--|-----1--------|-----0-----1--|

Last Chorus:
-----------

G-----------|
D---3-------| (x8)
A------3----|
E-----------|

G-----------------|
D-----------------| (x3)
A-----------------|
E---1--5----3--1--|

G----------------|---------------|
D----------------|---------------|
A---1-1-1--etc.--|---------------|
E----------------|--1-1-1--etc.--|

Outro:
-----

G-----------|
D------3----| (x3)
A---3-------|
E-----------|

End on C.

From the Dead Milkmen Guitar Tab Project
http://www.geocities.com/dmtabs/
=============================================================================
Добавлено: 07.07.2012
Другие материалы по этой песне:
  • Аккорды и текст

Страница создана 15.05.2012
http://primanota.ru/dead-milkmen/i-hate-you-i-love-you-chords.htm
Привет, Гость.
Предлагаем пройти революционный курс по гитаре.
Подарок от PrimaNota.Ru, забирай!