PrimaNota.ru - самый крупный в мире бесплатный архив песенных текстов, аккордов, табулатур и нот


Dead Milkmen - Filet Of Sole - текст песни, бас-таба, видео

Регистрация Запомнить меня
Войти через:  Facebook Google Twitter Vk Yandex Mail.ru

Dead Milkmen - Filet Of Sole - текст песни, бас-таба, видео

Печатать
Просмотров: 170
Уроки эстрадного вокала в Санкт-Петербурге
-----------------------------------------------------------------------------
			 Dead Milkmen - Filet Of Sole
-----------------------------------------------------------------------------

Tabbed By : Tom Chalifour
e-mail: oodlesofnoodles87@hotmail.com

Tuning: Standard

=============================================================================

Here's an easy one.  The structure of it kinda reminds me of
Dean's Dream.


Verse:
   F#   E
G-----------------------|
D-----------------------|
A-----------------------|
E--2-2--0-2--0-2-2--0-2-|


Chorus:
   F#   E    B
G---------------------------------------------|
D--4----2-------------------------------------|
A------------2--2-2--2-2-2---2--2-2--2-2-2----|
E---------------------------------------------|

   F#   E
G------------|
D------------|
A--0----4----|
E------------|


Bridge:
   E       F#
G-------------------|
D--2-2-2-2-4-4-4-4--|
A-------------------|
E-------------------|


Outro: (just a different rhythm from the verse)
   F#   E
G----------------------|
D----------------------|
A----------------------|
E--2-2--0-2--0-2-2-0-2-|

End on F#.


From the Dead Milkmen Guitar Tab Project
http://www.geocities.com/dmtabs/

=============================================================================
Добавлено: 03.04.2012
Другие материалы по этой песне:
  • Аккорды и текст

Страница создана 03.04.2012
http://primanota.ru/dead-milkmen/filet-of-sole-chords.htm
Привет, Гость.
Предлагаем пройти революционный курс по гитаре.
Подарок от PrimaNota.Ru, забирай!