PrimaNota.ru - самый крупный в мире бесплатный архив песенных текстов, аккордов, табулатур и нот


Dead Milkmen - Everybodys Got Nice Stuff But Me - текст песни, бас-таба, видео

Регистрация Запомнить меня
Войти через:  Facebook Google Twitter Vk Yandex Mail.ru

Dead Milkmen - Everybodys Got Nice Stuff But Me - текст песни, бас-таба, видео

Печатать
Просмотров: 103
-----------------------------------------------------------------------------
		Dead Milkmen - Everybody's Got Nice Stuff But Me
-----------------------------------------------------------------------------

Tabbed by: Mike Brennan (djpolokus@hotmail.com)

And everyone's got a nice bass but me! (So mine is really just a low tuned guitar...)


Opening note:

G--------------|
D-0---------0--|
A--------------|
E--------------|

Don't know the timing for that...

Chorus:

Everybody's got nice stuff but me...

G-----------------------------------|
D-0-0-0-0-3-3-3-3-2-2-2-2-----------|
A-------------------------3-3-3-3---|
E-----------------------------------|

Verse riff:

Look at that girl she makes me sick...

G----------------------------------|
D-5---5---5-4-2--------------------|
A---------------5-----5---3-5------|
E----------------------------------|

Second verse riff(Play this halfway through the third verse):

I wish I had the kind of cash...

G-----------------------5---5-5-5---|
D---------------------3-------------|
A-5-0-----0-1-5-3-------------------|
E-----------------------------------|

Not 100% sure about that, but I think it's mostly right, or at least workable.

Ending:

Everybody's got nice stuff but me!

G-2-2-2-2-5-5-5-5-4-4-4-4-3-3-3-3-|-2-|
D---------------------------------|---|
A---------------------------------|---|
E---------------------------------|---|

Once again, I know the lyrics are on the site, and it's not hard to find out the parts 
the song.


From the Dead Milkmen Guitar Tab Project
http://www.geocities.com/dmtabs/

=============================================================================
Добавлено: 10.07.2012
Другие материалы по этой песне:
  • Аккорды и текст

Страница создана 08.05.2012
http://primanota.ru/dead-milkmen/everybodys-got-nice-stuff-but-me-chords.htm
Привет, Гость.
Предлагаем пройти революционный курс по гитаре.
Подарок от PrimaNota.Ru, забирай!