PrimaNota.ru - самый крупный в мире бесплатный архив песенных текстов, аккордов, табулатур и нот


Dead Milkmen - Bleach Boys - текст песни, бас-таба, видео

Регистрация Запомнить меня
Войти через:  Facebook Google Twitter Vk Yandex Mail.ru

Dead Milkmen - Bleach Boys - текст песни, бас-таба, видео

Печатать
Просмотров: 117
-----------------------------------------------------------------------------
			  Dead Milkmen - Bleach Boys
-----------------------------------------------------------------------------

Tabbed by: Ben Gladdle (moose9377@hotmail.com)

Verse:
-----
    A
G--------------------|
D---------4-5-4------|
A-----4-7-------7-4--|
E---5----------------|

    D
G---------4-5-4------|
D-----4-7-------7-4--|
A---5----------------|
E--------------------|

    E
G---------6-7-6------|
D-----6-9-------9-6--|
A---7----------------|
E--------------------|

    lowE
G--------------------|
D--------------------|
A--------------------|
E-----0-0-0-0-0-0-0--|

The four parts above are played as follows.

A
I've got some buddies and we all drink bleach
A
You know we practice what we preach
            D
We're not a drunken bunch of frat-boys
Trashed on beers
     A
Or a stoned bunch of hippies
With no careers
  E                         D              A    E(low)
I wanna drink bleach with a Georgia peach


Chorus:
------
    C     G     D     F     G     A
G----------------------------------------|
D----------------------------------------|
A---3-----------5------------------------|
E---------3-----------1-----3-----5------|

Easy.

C                                 G
Don't you wanna hang out with the Bleach Boys, baby?
     D                     F
In a world where ministers murder golf pros
G                          A
Don't you wanna drink some bleach tonight?


Solo: with verse bass
----


Outro:
-----

This bit's just the same as the verse, so just go with that, except
obviously during the gap where there's no music. ;)

A                A
I'm so bored I'm drinking bleach
A                A
I'm so bored I'm drinking bleach
D                D
I'm so bored I'm drinking bleach
A                A
I'm so bored I'm drinking bleach
E                D
I'm so bored I'm drinking bleach
A                E(low)
I'm so bored I'm drinking bleach
A (single note)
I'm so bored I'm drinking bleach
NC
I'm so bored I'm drinking bleach
D
I'm so bored I'm drinking bleach
A
I'm so bored I'm drinking bleach
  E     D                    A
I am so booooooooooooooooooooooooored!


Then...

    lowE            A
G-------------------------|
D-------------------------|
A-------------------------|
E---0-0----0-0----0-5-----|

End on A.

Et voila. :) Not too hard, but pretty funky bass-wise. Hope it's right!

From the Dead Milkmen Guitar Tab Project
http://www.geocities.com/dmtabs/

=============================================================================
Добавлено: 21.07.2012
Другие материалы по этой песне:
  • Аккорды и текст

Страница создана 26.06.2012
http://primanota.ru/dead-milkmen/bleach-boys-chords.htm
Привет, Гость.
Предлагаем пройти революционный курс по гитаре.
Подарок от PrimaNota.Ru, забирай!