PrimaNota.ru - самый крупный в мире бесплатный архив песенных текстов, аккордов, табулатур и нот


Dead Milkmen - Air Crash Museum - текст песни, бас-таба, видео

Регистрация Запомнить меня
Войти через:  Facebook Google Twitter Vk Yandex Mail.ru

Dead Milkmen - Air Crash Museum - текст песни, бас-таба, видео

Печатать
Просмотров: 114
THE DEAD MILKMEN
Air Crash Museum - Bass
Album: Eat Your Paisley

Verse:
-----

G----------------------------|-----------------------------|
D----------------5-5-7-5-----|-----------------------------|
A--5-5-5--7-7-7--------------|--5-5-5--7-7-7--3--2---------|
E----------------------------|----------------------5--3---|


Chorus:
------

G--------------------------|
D--------------------------|
A--------------------------|
E--0-0-2-3---3--etc.-------|


Bridge:
------
         Em
G--------------------------|--------------------------|
D--------------------------|--------------------------|
A--------------------------|--------------------------|
E--5-3-2-0------5-3-2-0----|--5-3-2-0---0----hold-----|

   C                D
G-------------------------------------|
D------------------------------2--4---| Back into verse
A--3--3--3----2--3--5---5---5---------|
E-------------------------------------|
Добавлено: 12.06.2012
Другие материалы по этой песне:
  • Аккорды и текст

Страница создана 15.03.2012
http://primanota.ru/dead-milkmen/air-crash-museum-chords.htm
Привет, Гость.
Предлагаем пройти революционный курс по гитаре.
Подарок от PrimaNota.Ru, забирай!