PrimaNota.ru - самый крупный в мире бесплатный архив песенных текстов, аккордов, табулатур и нот


Dead Men Dreaming - Violent Rain - таба, видео

Регистрация Запомнить меня
Войти через:  Facebook Google Twitter Vk Yandex Mail.ru

Dead Men Dreaming - Violent Rain - таба, видео

Печатать
Просмотров: 121
Уроки эстрадного вокала в Санкт-Петербурге
(From the 2005 EP ITS SEXIER WHEN THEY CRY)

Transcribed by Anthony Bordonaro
 Words and Music by Dead Men Dreaming
Arranged by Dead Men Dreaming


KEY: C# Minor

TUNING: A E A D G B E

EQUIPMENT: This song utilizes the 7 string guitar, with the B string detuned one full
to A. No effects are needed for this song, just dirty to clean and vice versa.

*NOTE* - Tab kind of sucks because you cannot denote timing, but all the right notes are
you just have to listen to the CD/Mp3s for the correct timing. Also in the verse you
see the little runs of 4 6 7 on the A and D strings… I tend to pick every note there,
feel free to hammer on and pull off when descending. Another thing is that this is the
song all the way through…none of that play riff A 4 times and than Riff C 2 time and end
Riff F bullshit. Just get the timing down and this tabs equals the 4 minutes and twenty
of  pure violent rain…mmm… 4:20…. Umm that's pretty much it, so plug in your axe and 
fucking playing already! Any questions, comments, complaints, pick up lines,
threats, etc can be made to deadmendreaming@hotmail.com

Also be sure to check out www.deadmendreaming.com as well as
for updates on news, music, pics, tabs, and lyrics. Konicheewa bitches!

Keep shredding motherfuckers!!!

               - Anthony

 4/4
 Intro / Main Riff
|-------------------------------------------------------------------|
|-------------------------------------------------------------------|
|-------------------------------------------------------------------|
|-----------------------------6-6-6-6-6-----------------------------|
|-------6-6-6-6-6-4-4-4-----------------7-7-7-------6-6-6-6-6-4-4-4-|
|-4-4-4-----------------4-4-4-----------------4-4-4-----------------|
|-4-4-4-----------------4-4-4-----------------4-4-4-----------------|


|------------------------------------------------------------------|
|------------------------------------------------------------------|
|------------------------------------------------------------------|
|-----------------------9\-------------------------------6-6-6-6-6-|
|----------------------------------6-6-6-6-6-4-4-4-----------------|
|-7-7-7-7-7-7-7-7-7-7-7-7\---4-4-4-----------------4-4-4-----------|
|-7-7-7-7-7-7-7-7-7-7-7------4-4-4-----------------4-4-4-----------|


|---------------------------------------------------------------------|
|---------------------------------------------------------------------|
|---------------------------------------------------------------------|
|---------------------------------------------------------------------|
|-7-7-7-------6-6-6-6-6-4-4-4-------------------------------6-6-6-6-6-|
|-------4-4-4-----------------7-7-7-7-7-7-7-7-7-7-7-2-4-4-4-----------|
|-------4-4-4-----------------7-7-7-7-7-7-7-7-7-7-7-2-4-4-4-----------|


|---------------------------------------------------------------------|
|---------------------------------------------------------------------|
|---------------------------------------------------------------------|
|-------------6-6-6-6-6-----------------------------------------------|
|-4-4-4-----------------7-7-7-------6-6-6-6-6-4-4-4-------------------|
|-------4-4-4-----------------4-4-4-----------------7-7-7-7-7-7-7-7-7-|
|-------4-4-4-----------------4-4-4-----------------7-7-7-7-7-7-7-7-7-|


|---------------------------------------------------------------------|
|---------------------------------------------------------------------|
|---------------------------------------------------------------------|
|-----9\------------------------------6-6-6-6-6-----------------------|
|---------------6-6-6-6-6-4-4-4-----------------7-7-7-------6-6-6-6-6-|
|-7-7-7\--4-4-4-----------------4-4-4-----------------4-4-4-----------|
|-7-7-----4-4-4-----------------4-4-4-----------------4-4-4-----------|


|--------------------------|
|--------------------------|
|--------------------------|
|--------------------------|
|-4-4-4--------------------|
|-------4-0-0-4-0-5-6-7----|
|-------4-0-0-4-0-5-6-7----|

 Verse 1
|---------------------------------------------------------------------|
|---------------------------------------------------------------------|
|---------------------------------------------------------------------|
|-------------------------------4-6-7-------4-6-7---------------------|
|-4h6-----7p6-----4h6-----4-6-7-------4-6-7-------4h6-----7p6-----4h6-|
|-----4-4-----4-4-----4-4-----------------------------0-0-----0-0-----|
|-----4-4-----4-4-----4-4-----------------------------0-0-----0-0-----|


|---------------------------------------------------------------------|
|---------------------------------------------------------------------|
|---------------------------------------------------------------------|
|---------------------------------------------------------------6-----|
|-----7-6-4-------7-6-4-------4h6-----7p6-----4h6-----7-6-4-4-7---4h6-|
|-0-0-------7-6-4-------7-6-4-----4-4-----4-4-----4-4-----------------|
|-0-0-----------------------------4-4-----4-4-----4-4-----------------|


|---------------------------------------------------------------------|
|---------------------------------------------------------------------|
|---------------------------------------------------------------------|
|---------------------------------------------------------------4-6-7-|
|-----7p6-----4h6-----7-6-4-4-6---4h6-----7p6-----4h6-----4-6-7-------|
|-0-0-----0-0-----0-0-----------7-----4-4-----4-4-----4-4-------------|
|-0-0-----0-0-----0-0-----------------4-4-----4-4-----4-4-------------|


|----------------------------------------------------|
|----------------------------------------------------|
|----------------------------------------------------|
|-------4-6-7----------------------------------------|
|-4-6-7-------4h6-----7p6-----4h6-----7-6-4---6------|
|-----------------0-0-----0-0-----0-0-------7---7----|
|-----------------0-0-----0-0-----0-0----------------|

 Pre Chorus
|---------0-----------------------------------------------------------|
|-------0---0-----------0-------0-------5-4-5-----------5-4-5---------|
|-----2-------2-------2-------4-------6-------6-------6-------6-------|
|---2-----------2---2-------4-------6-----------6---6-----------6---2-|
|-0---------------0-------2-------4---------------4---------------0---|
|---------------------------------------------------------------------|
|---------------------------------------------------------------------|


|-----0------------------------------------|
|---0---0-----------0-------7-------4-5----|
|-2-------2-------2-------9-------6--------|
|-----------2---2-------9-------6----------|
|-------------0-------7-------4------------|
|------------------------------------------|
|------------------------------------------|

 Chorus – Make sure to ring out those notes!!!
|----------------------------------------------------------------------|
|----------------------------------------------------------------------|
|----------------------------------------------------------------------|
|----------------------------------------------------------------------|
|-0---2---4-----0---7---2--4---4-4-4-4S6-6-6-6S7-7-7-7-----------------|
|-0---2---4-----0---7---2--4---2-2-2-2S4-4-4-4S5-5-5-5-2-2-2-2-2-2-2-2-|
|-0---2---4-----0---7---2--4---------------------------2-2-2-2-2-2-2-2-|

 Main Riff
|-----------------|-----------------|-----------------|-----------------|----|
|-----------------|-----------------|-----------------|-----------------|----|
|-----------------|-----------------|-----------------|-----------------|----|
|-----------------|-------------6-6-|-6-6-6-----------|-----------------|----|
|-------6-6-6-6-6-|-4-4-4-----------|-------7-7-7-----|---6-6-6-6-6-4-4-|-4--|
|-4-4-4-----------|-------4-4-4-----|-------------4-4-|-4---------------|----|
|-4-4-4-----------|-------4-4-4-----|-------------4-4-|-4---------------|----|


|-----------------|------------------|-----------------|---------------|
|-----------------|------------------|-----------------|---------------|
|-----------------|------------------|-----------------|---------------|
|-----------------|-------9\---------|-----------------|-----6-6-6-6-6-|
|-----------------|----------------6-|-6-6-6-6-4-4-4---|---------------|
|-7-7-7-7-7-7-7-7-|-7-7-7-7\-4-4-4---|---------------4-|-4-4-----------|
|-7-7-7-7-7-7-7-7-|-7-7-7----4-4-4---|---------------4-|-4-4-----------|


|-----------------|-----------------|-----------------|-----------------|-----|
|-----------------|-----------------|-----------------|-----------------|-----|
|-----------------|-----------------|-----------------|-----------------|-----|
|-----------------|-----------------|-----------------|-----------------|-----|
|-7-7-7-------6-6-|-6-6-6-4-4-4-----|-----------------|-----------6-6-6-|-6-6-|
|-------4-4-4-----|-------------7-7-|-7-7-7-7-7-7-7-7-|-7-2-4-4-4-------|-----|
|-------4-4-4-----|-------------7-7-|-7-7-7-7-7-7-7-7-|-7-2-4-4-4-------|-----|


|-----------------|-----------------|-----------------|-----------------|-----|
|-----------------|-----------------|-----------------|-----------------|-----|
|-----------------|-----------------|-----------------|-----------------|-----|
|-------------6-6-|-6-6-6-----------|-----------------|-----------------|-----|
|-4-4-4-----------|-------7-7-7-----|---6-6-6-6-6-4-4-|-4---------------|-----|
|-------4-4-4-----|-------------4-4-|-4---------------|---7-7-7-7-7-7-7-|-7-7-|
|-------4-4-4-----|-------------4-4-|-4---------------|---7-7-7-7-7-7-7-|-7-7-|


|------------------|-----------------|-----------------|-----------------|----|
|------------------|-----------------|-----------------|-----------------|----|
|------------------|-----------------|-----------------|-----------------|----|
|-----9\-----------|-----------------|---6-6-6-6-6-----|-----------------|----|
|--------------6-6-|-6-6-6-4-4-4-----|-------------7-7-|-7-------6-6-6-6-|-6--|
|-7-7-7\-4-4-4-----|-------------4-4-|-4---------------|---4-4-4---------|----|
|-7-7----4-4-4-----|-------------4-4-|-4---------------|---4-4-4---------|----|


|-----------------|----------|
|-----------------|----------|
|-----------------|----------|
|-----------------|----------|
|-4-4-4-----------|----------|
|-------4-0-0-4-0-|-5-6-7----|
|-------4-0-0-4-0-|-5-6-7----|

 Verse 2
|-----------------|-----------------|-----------------|-----------------|-----|
|-----------------|-----------------|-----------------|-----------------|-----|
|-----------------|-----------------|-----------------|-----------------|-----|
|-----------------|---------------4-|-6-7-------4-6-7-|-----------------|-----|
|-4h6-----7p6-----|-4h6-----4-6-7---|-----4-6-7-------|-4h6-----7p6-----|-4h6-|
|-----4-4-----4-4-|-----4-4---------|-----------------|-----0-0-----0-0-|-----|
|-----4-4-----4-4-|-----4-4---------|-----------------|-----0-0-----0-0-|-----|


|-----------------|-----------------|-----------------|-----------------|-----|
|-----------------|-----------------|-----------------|-----------------|-----|
|-----------------|-----------------|-----------------|-----------------|-----|
|-----------------|-----------------|-----------------|---------------6-|-----|
|-----7-6-4-------|-7-6-4-------4h6-|-----7p6-----4h6-|-----7-6-4-4-7---|-4h6-|
|-0-0-------7-6-4-|-------7-6-4-----|-4-4-----4-4-----|-4-4-------------|-----|
|-0-0-------------|-----------------|-4-4-----4-4-----|-4-4-------------|-----|


|-----------------|-----------------|-----------------|-----------------|-----|
|-----------------|-----------------|-----------------|-----------------|-----|
|-----------------|-----------------|-----------------|-----------------|-----|
|-----------------|-----------------|-----------------|---------------4-|-6-7-|
|-----7p6-----4h6-|-----7-6-4-4-6---|-4h6-----7p6-----|-4h6-----4-6-7---|-----|
|-0-0-----0-0-----|-0-0-----------7-|-----4-4-----4-4-|-----4-4---------|-----|
|-0-0-----0-0-----|-0-0-------------|-----4-4-----4-4-|-----4-4---------|-----|


|-----------------|-----------------|--------------------|
|-----------------|-----------------|--------------------|
|-----------------|-----------------|--------------------|
|-------4-6-7-----|-----------------|--------------------|
|-4-6-7-------4h6-|-----7p6-----4h6-|-----7-6-4---6------|
|-----------------|-0-0-----0-0-----|-0-0-------7---7----|
|-----------------|-0-0-----0-0-----|-0-0----------------|

 Pre Chorus
|---------0-------|-----------------|-----------------|-----------------|-----|
|-------0---0-----|-------0-------0-|-------5-4-5-----|-------5-4-5-----|-----|
|-----2-------2---|-----2-------4---|-----6-------6---|-----6-------6---|-----|
|---2-----------2-|---2-------4-----|---6-----------6-|---6-----------6-|---2-|
|-0---------------|-0-------2-------|-4---------------|-4---------------|-0---|
|-----------------|-----------------|-----------------|-----------------|-----|
|-----------------|-----------------|-----------------|-----------------|-----|


|-----0-----------|-----------------|----------|
|---0---0---------|---0-------7-----|---4-5----|
|-2-------2-------|-2-------9-------|-6--------|
|-----------2---2-|-------9-------6-|----------|
|-------------0---|-----7-------4---|----------|
|-----------------|-----------------|----------|
|-----------------|-----------------|----------|

 Chorus
|------------------------|-----------------|-----------------|---------|
|------------------------|-----------------|-----------------|---------|
|------------------------|-----------------|-----------------|---------|
|------------------------|-----------------|-----------------|---------|
|-0--2--4--0--7--2--4--4-|-4-4-4S6-6-6-6S7-|-7-7-7-----------|---------|
|-0--2--4--0--7--2--4--2-|-2-2-2S4-4-4-4S5-|-5-5-5-2-2-2-2-2-|-2-2-2-4-|
|-0--2--4--0--7--2--4----|-----------------|-------2-2-2-2-2-|-2-2-2-4-|

 Oh Shit!…It's the Bridge
|--------------------------------|
|--------------------------------|
|--------------------------------|
|---------------------------8----|
|--------------------------------|
|-0-0-0-2-1-0-0-2-3-0-------6----|
|-0-0-0-2p1-0-0-2h3-0-3h4h5------|


|-----------------|----------------|
|-----------------|----------------|
|-----------------|----------------|
|-----------------|-----------8----|
|-----------------|----------------|
|-0-0-0-2-1-0-0-2-|-3-0-------6----|
|-0-0-0-2p1-0-0-2h|=3-0-3h4h5------|


|-----------------|-------------------------------------------------------|
|-----------------|-------------------------------------------------------|
|-----------------|-------------------------------------------------------|
|-----------------|-----------8---------------------------8---------------|
|-----------------|-------------------------------------------------------|
|-0-0-0-2-1-0-0-2-|-3-0-------6-0-0-0-2-1-0-0-2-3-0-------6-0-0-0-2-1-0-0-|
|-0-0-0-2p1-0-0-2h|=3-0-3h4h5---0-0-0-2p1-0-0-2h3-0-3h4h5---0-0-0-2p1-0-0-|


|---------------------------------|-----------------|-----------------|
|---------------------------------|-----------------|-----------------|
|---------------------------------|-----------------|-----------------|
|-------------8-------------------|-----------------|-----------8-----|
|---------------------------------|-----------------|-----------------|
|-2-3-0-------6-0-0-0-2-1-0-5-4-3-|-0-0-0-2-1-0-0-2-|-3-0-------6-0-0-|
|-2h3-0-3h4h5---0-0-0-2p1-0-5-4-3-|-0-0-0-2p1-0-0-2h|=3-0-3h4h5---0-0-|


|-----------------|-----------------|-----------------|-----------------|-----|
|-----------------|-----------------|-----------------|-----------------|-----|
|-----------------|-----------------|-----------------|-----------------|-----|
|-----------------|-------8---------|-----------------|---8-------------|-----|
|-----------------|-----------------|-----------------|-----------------|-----|
|-0-2-1-0-0-2-3-0-|-------6-0-0-0-2-|-1-0-0-2-3-0-----|---6-0-0-0-2-1-5-|-4-3-|
|-0-2p1-0-0-2h3-0-|-3h4h5---0-0-0-2p|=1-0-0-2h3-0-3h4h|=5---0-0-0-2p1-5-|-4-3-|


|------------------------|-----------------|-----------------------------|
|------------------------|-----------------|-----------------------------|
|------------------------|-----------------|-----------------------------|
|----------------------8-|-----------------|------8----------------------|
|------------------------|-----------------|-----------------------------|
|-0-0-2-1-0-2-3-0-3/-5-6-|-0-0-2-1-0-2-3-0-|-3/-5-6-0-0-2-1-0-2-3-0-3/-6-|
|-0-0-2p1-0-2h3-0-3/-5---|-0-0-2p1-0-2h3-0-|-3/-5---0-0-2p1-0-2h3-0-3/-5-|


|-----------------|-----------------|------------------|----------------|
|-----------------|-----------------|------------------|----------------|
|-----------------|-----------------|------------------|----------------|
|-----------------|-----------------|------8-----------|------------8---|
|-----------------|-----------------|------------------|----------------|
|-0-0-2-1-0-5-4-3-|-0-0-2-1-0-2-3-0-|-3/-5-6-0-0-2-1-0-|-2-3-0-3/-5-6-0-|
|-0-0-2p1-0-5-4-3-|-0-0-2p1-0-2h3-0-|-3/-5---0-0-2p1-0-|-2h3-0-3/-5---0-|


|------------------|-----------------|---------------------------------|
|------------------|-----------------|---------------------------------|
|------------------|-----------------|---------------------------------|
|------------------|---8-------------|---------------------------------|
|------------------|-----------------|---------------------------------|
|-0-2-1-0-2-3-0-3/-|-5-6-0-0-2-1-0-5-|-4-3-4-3-2-5-4-3-4-3-2-3-2-1-2-1-|
|-0-2p1-0-2h3-0-3/-|-5---0-0-2p1-0-5-|-4-3-4-3-2-5-4-3-4-3-2-3-2-1-2-1-|


|-----------------------|
|-----------------------|
|-----------------------|
|-----------------------|
|-----------------------|
|-0-3-2-1--2---1---0----|
|-0-3-2-1--2---1---0----|

 Verse 3
|-----------------|-----------------|-----------------|-----------------|-----|
|-----------------|-----------------|-----------------|-----------------|-----|
|-----------------|-----------------|-----------------|-----------------|-----|
|-----------------|---------------4-|-6-7-------4-6-7-|-----------------|-----|
|-4h6-----7p6-----|-4h6-----4-6-7---|-----4-6-7-------|-4h6-----7p6-----|-4h6-|
|-----4-4-----4-4-|-----4-4---------|-----------------|-----0-0-----0-0-|-----|
|-----4-4-----4-4-|-----4-4---------|-----------------|-----0-0-----0-0-|-----|


|-----------------|-----------------|-----------------|-----------------|-----|
|-----------------|-----------------|-----------------|-----------------|-----|
|-----------------|-----------------|-----------------|-----------------|-----|
|-----------------|-----------------|-----------------|---------------6-|-----|
|-----7-6-4-------|-7-6-4-------4h6-|-----7p6-----4h6-|-----7-6-4-4-7---|-4h6-|
|-0-0-------7-6-4-|-------7-6-4-----|-4-4-----4-4-----|-4-4-------------|-----|
|-0-0-------------|-----------------|-4-4-----4-4-----|-4-4-------------|-----|


|-----------------|-----------------|-----------------|-----------------|-----|
|-----------------|-----------------|-----------------|-----------------|-----|
|-----------------|-----------------|-----------------|-----------------|-----|
|-----------------|-----------------|-----------------|---------------4-|-6-7-|
|-----7p6-----4h6-|-----7-6-4-4-6---|-4h6-----7p6-----|-4h6-----4-6-7---|-----|
|-0-0-----0-0-----|-0-0-----------7-|-----4-4-----4-4-|-----4-4---------|-----|
|-0-0-----0-0-----|-0-0-------------|-----4-4-----4-4-|-----4-4---------|-----|


|-----------------|-----------------|--------------------|
|-----------------|-----------------|--------------------|
|-----------------|-----------------|--------------------|
|-------4-6-7-----|-----------------|--------------------|
|-4-6-7-------4h6-|-----7p6-----4h6-|-----7-6-4---6------|
|-----------------|-0-0-----0-0-----|-0-0-------7---7----|
|-----------------|-0-0-----0-0-----|-0-0----------------|

 Final Chorus
|------------------------|-----------------|-----------------|---------|
|------------------------|-----------------|-----------------|---------|
|------------------------|-----------------|-----------------|---------|
|------------------------|-----------------|-----------------|---------|
|-0--2--4--0--7--2--4--4-|-4-4-4S6-6-6-6S7-|-7-7-7-----------|---------|
|-0--2--4--0--7--2--4--2-|-2-2-2S4-4-4-4S5-|-5-5-5-2-2-2-2-2-|-2-2-2-4-|
|-0--2--4--0--7--2--4----|-----------------|-------2-2-2-2-2-|-2-2-2-4-|


|--------------------------|
|--------------------------|
|--------------------------|
|--------------------------|
|-----6-6-6-6-6-4-4-4------|
|-4-4-----------------4----|
|-4-4-----------------4----|

--------------------------------------------------------------------------------


Tablature Legend
----------------
 h   - hammer-on
 p   - pull-off
 b   - bend
 pb  - pre-bend
 r   - bend release (if no number after the r, then release immediately)
 /\  - slide into or out of (from/to "nowhere")
 s   - legato slide
 S   - shift slide
 - natural harmonic
[n]  - artificial harmonic
n(n) - tapped harmonic
 ~   - vibrato
 tr  - trill
 T   - tap
 TP  - trem. picking
 PM  - palm muting
\n/  - tremolo bar dip; n = amount to dip
 \n  - tremolo bar down
 n/  - tremolo bar up
/n\  - tremolo bar inverted dip
 =   - hold bend; also acts as connecting device for hammers/pulls
 <> - volume swell (louder/softer)
 x   - on rhythm slash represents muted slash
 o   - on rhythm slash represents single note slash

www.deadmendreaming.com
Добавлено: 28.06.2012
Другие материалы по этой песне:
  • Аккорды и текст

Страница создана 28.06.2012
http://primanota.ru/dead-men-dreaming/violent-rain-chords.htm
Привет, Гость.
Предлагаем пройти революционный курс по гитаре.
Подарок от PrimaNota.Ru, забирай!