PrimaNota.ru - самый крупный в мире бесплатный архив песенных текстов, аккордов, табулатур и нот


Dead Meadow - One And Old - таба, видео

Регистрация Запомнить меня
Войти через:  Facebook Google Twitter Vk Yandex Mail.ru

Dead Meadow - One And Old - таба, видео

Печатать
Просмотров: 109
-------------------------------------------------------------------------------
                             ONE AND OLD - Dead Meadow
-------------------------------------------------------------------------------
Tabbed by: dinomatt707
Email: mb208207@ohio.edu

Tuning:standard

| /  slide up
| \  slide down
| h  hammer-on
| p  pull-off


e|--------------------------|
B|--------------------------|
G|--------------------------| x4
D|--------------------------|
A|-----/10-----14h16p14-13--|
E|--0-------0---------------|

  2:02
e|------------------------------|
B|------------------------------|
G|------------------------------| x2
D|-----9-----8\5-----5-----0----|
A|---------------------------2--|
E|--0-----0-------0-----0-------|

  2:23
e|----------------------------------|
B|----------------------------------|
G|----------------------------------|
D|-----9-----5/8-----5/8-----0------|
A|-----------------------------2-1--|
E|--0-----0-------0-------0---------|

  2:34
e|------------------------------|
B|------------------------------|
G|------------------------------| x3
D|-----9-----8\5-----5-----0----|
A|---------------------------2--|
E|--0-----0-------0-----0-------|

  3:06
e|----------------------------------|
B|----------------------------------|
G|----------------------------------|
D|-----9-----5/8-----5/8-----0------|
A|-----------------------------2-1--|
E|--0-----0-------0-------0---------|

  3:17
e|------------------------------|
B|------------------------------|
G|------------------------------|
D|-----9-----8\5-----5-----0----|
A|---------------------------2--|
E|--0-----0-------0-----0-------|

  3:28
e|-------------------------------|
B|-------------------------------|
G|-------------------------------|
D|-------------------------------|
A|-----10-10-10-10-10-----13-----|
E|--0------------------0------0--|

  3:45
e|----------------------------|
B|----------------------------|
G|----------------------------|
D|----------------12----------|
A|--2--5--10--13------13--10--|
E|----------------------------|

  3:55
e|---------------------------------------------------------|
B|---------------------------------------------------------|
G|---------------------------------------------------------| x2
D|-----------12----------------------------------9h11p9\8--|
A|-----12h13----13-10-13p10\9--5h7p5h7---2h5-2-2-----------|
E|--0----------------------------------0-------------------|

  4:14
e|-------------------------------------------------------|
B|-------------------------------------------------------|
G|-------------------------------------------------------|
D|-----------12----------------------12------------------|
A|-----12h13----13-12-13-12-10-13-------13-12-10--5-2-1--|
E|--0------------------------------0---------------------|

  4:24
e|----------------------------------------|
B|----------------------------------------|
G|----------------------------------------| x3
D|----------------------------------------|
A|----------------------------------------|
E|--0--18-19-18-12-15-12--18-19-18-12-15--|


e|----------------------------------------|
B|----------------------------------------|
G|----------------------------------------|
D|----------------------------------------|
A|------------------------------17--------|
E|--0--18-19-18-12-15-12--18-19----12-15--|

  4:44
e|----------------------------------------|
B|----------------------------------------|
G|----------------------------------------| x3
D|----------------------------------------|
A|----------------------------------------|
E|--0--18-19-18-12-15-12--18-19-18-12-15--|


e|----------------------------------------|
B|----------------------------------------|
G|----------------------------------------|
D|----------------------------------------|
A|------------------------------17--------|
E|--0--18-19-18-12-15-12--18-19----19-18--|

  5:02
e|------------------------------|
B|------------------------------|
G|------------------------------| x2
D|-----9-----8\5-----5-----0----|
A|---------------------------2--|
E|--0-----0-------0-----0-------|


e|----------------------------------|
B|----------------------------------|
G|----------------------------------|
D|-----9-----5/8-----5/8-----0------|
A|-----------------------------2-1--|
E|--0-----0-------0-------0---------|

  5:31
e|------------------------------|
B|------------------------------|
G|------------------------------| x3
D|-----9-----8\5-----5-----0----|
A|---------------------------2--|
E|--0-----0-------0-----0-------|


e|----------------------------------|
B|----------------------------------|
G|----------------------------------|
D|-----9-----5/8-----5/8-----0------|
A|-----------------------------2-1--|
E|--0-----0-------0-------0---------|


e|------------------------------|
B|------------------------------|
G|------------------------------|
D|-----9-----8\5-----5-----0----|
A|---------------------------2--|
E|--0-----0-------0-----0-------|

  6:17
e|------------------------------|
B|------------------------------|
G|------------------------------|
D|-------------------14---------|
A|-----10-7-2-10-7-------13-----|
E|--0------------------------0--|

  6:45
e|------------------------------|
B|------------------------------|
G|------------------------------| x2
D|------------------------------|
A|-----7-7----7-7----7-7--9--5--|
E|--0------0------0-------------|

  7:27
e|----------------------------------------------------------|
B|----------------------------------------------------------|
G|----------------------------------------------------------|
D|-----9-9----7---7---7-------------------------------------|
A|--------------9---9---9-----9-5-7-----17-14-12-10--5-2-1--|
E|--0------0---------------0---------0----------------------|


e|------------------------------------|
B|------------------------------------|
G|------------------------------------|
D|------------------------------------|
A|-----7-7----7-7----7-7--9--5--2--5--|
E|--0------0------0-------------------|

  8:09
e|------------------------------|
B|------------------------------|
G|-----16-12----14--14-12-------| x16
D|-----------14-----------10-9--|
A|------------------------------|
E|--0---------------------------|


e|------------|
B|------------|
G|--16-12-----|
D|--------14--|
A|------------|
E|------------|


===============================================================================
Добавлено: 07.07.2012
Другие материалы по этой песне:
  • Аккорды и текст

Страница создана 07.07.2012
http://primanota.ru/dead-meadow/one-and-old-chords.htm
Привет, Гость.
Предлагаем пройти революционный курс по гитаре.
Подарок от PrimaNota.Ru, забирай!