PrimaNota.ru - самый крупный в мире бесплатный архив песенных текстов, аккордов, табулатур и нот


Dead Meadow - Lady - таба, видео

Регистрация Запомнить меня
Войти через:  Facebook Google Twitter Vk Yandex Mail.ru

Dead Meadow - Lady - таба, видео

Печатать
Просмотров: 123
-------------------------------------------------------------------------------
                             LADY - Dead Meadow
-------------------------------------------------------------------------------
Tabbed by: dinomatt707
Email: mb208207@ohio.edu


Tuning: standard


| /  slide up
| \  slide down
| h  hammer-on
| p  pull-off




e|--------------------------------------------|
B|--------------------------------------------|
G|--------------------------------------------| x4
D|--9--11p9------9----------------------------|
A|-----------11-----9-10-11--------7-------7--|
E|---------------------------7--9-----7h9-----|

 :20
e|----------------------------------------------|
B|----------------------------------------------|
G|----------------------------------------------|
D|----------------------------------9--------9--|
A|--9--11p9------9-----------9--11-----9h11-----|
E|-----------11-----9-10-11---------------------|


e|--------------------------------------------|
B|--------------------------------------------|
G|--------------------------------------------| x3
D|--9--11p9------9----------------------------|
A|-----------11-----9-10-11--------7-------7--|
E|---------------------------7--9-----7h9-----|

 :40 verse 
e|------------------------------------|
B|------------------------------------|
G|------------------------------------| x4
D|------------------------------------|
A|------------------------------------|
E|--9--7--9--7--9-7-9-9-7-9--7--9--7--|

 1:07
e|------------------------|
B|------------------------|
G|------------------------|
D|------------------------|
A|-----7h9--11--9--7h9p7--|
E|--9---------------------|


e|------------------------------------|
B|------------------------------------|
G|------------------------------------| x3
D|------------------------------------|
A|------------------------------------|
E|--9--7--9--7--9-7-9-9-7-9--7--9--7--|


e|------------------------|
B|------------------------|
G|------------------------|
D|------------------------|
A|-----7h9--11--9--7h9p7--|
E|--9---------------------|


e|------------------------------------|
B|------------------------------------|
G|------------------------------------|
D|------------------------------------|
A|------------------------------------|
E|--9--7--9--7--9-7-9-9-7-9--7--9--7--|

 1:40
e|---------------------------------------|
B|---------------------------------------|
G|---------------------------------------| x4
D|---------------------------------------|
A|----------------------------2-------2--|
E|--7--9p7\4--7--2-3-4--2--4-----2h4-----|

 2:03
e|-------------------------------------------|
B|-------------------------------------------|
G|-------------------------------------------|
D|-------------------------------------------|
A|--11--9--11--9-11-9-11-11-9--11--9--11--9--|
E|-------------------------------------------|


e|---------------------------------------------|
B|---------------------------------------------|
G|---------------------------------------------|
D|---------------------------------------------|
A|--11-11-9-11--9--11--9--11--9--7--9--9p7-----|
E|------------------------------------------9--|


e|---------------------------------------------------|
B|---------------------------------------------------|
G|---------------------------------------------------|
D|---------------------------------------------------|
A|--16--14--11--16--14--16--14--11--14--11--9--11p9--|
E|---------------------------------------------------|


e|------------------------------------|
B|------------------------------------|
G|------------------------------------| x3
D|------------------------------------|
A|------------------------------------|
E|--9--7--9--7--9-7-9-9-7-9--7--9--7--|

 solo. there is a second guitar near the end i didn't figure out

 2:45
e|------------------------------------------|
B|------------------------------------------|
G|--13--16--13--16--13--16--13-16-13-16-13--| x2
D|------------------------------------------|
A|------------------------------------------|
E|------------------------------------------|

 2:52
e|----------------------------------------------------------------------------------|
B|----------------------------------------------------------------------------------|
G|--13--16-13--16--13--16p13-16p13-16p13-16p13-16p13-16p13-16p13-16p13-16p13-16p13--|
D|----------------------------------------------------------------------------------|
A|----------------------------------------------------------------------------------|
E|----------------------------------------------------------------------------------|


e|---------------------------------------------------------------------|
B|---------------------------------------------------------------------|
G|--18--16--13--11\10--13-11-10-11-10--6h8-6--6-4h6---4-------8-6-4h6--|
D|--------------------------------------------------6---6-4h6----------|
A|---------------------------------------------------------------------|
E|---------------------------------------------------------------------|


e|-----------------------------------------------------------------------------|
B|-----------------------------------------------------------------------------|
G|--11-10-11-10-11-10----------------------------------------------------------|
D|--------------------9h11p9-9h11p9-9h11p9-9h11p9--11-9-6-9-6-4-6-4h6-4h6-4h6--|
A|-----------------------------------------------------------------------------|
E|-----------------------------------------------------------------------------|


e|--------------------------------------------------------------|
B|--------------------------------------------------------------|
G|--------------------------------------------------------------|
D|--4h6-4h6-4h6-4h6-4h6-4h6-4h6-4h6---11-9-11-13-11-13p11-9h11--|
A|--------------------------------------------------------------|
E|--------------------------------------------------------------|

 3:27
e|------------------------------------|
B|------------------------------------|
G|------------------------------------| x3
D|------------------------------------|
A|--7--9--7--9--7--4--14--11--14--11--|
E|------------------------------------|


e|--------------------------------------|
B|--------------------------------------|
G|--------------------------------------|
D|--------------------------------------|
A|--16--14--16--18--16--14--16--18--16--|
E|--------------------------------------|


e|------------------------------------|
B|------------------------------------|
G|------------------------------------| x2
D|------------------------------------|
A|--7--9--7--9--7--4--14--11--14--11--|
E|------------------------------------|


e|-----------------------------------------------------------------|
B|-----------------------------------------------------------------|
G|-----------------------------------------------------------------|
D|-----------------------------------------------------------------|
A|--7--9--7--9--7--4--2-4-2-4-2-4-2-4-2-4-2-4-2-4-2-4-2-4-2-4-2-4--|
E|-----------------------------------------------------------------|

 3:53
e|------------------------------------|
B|------------------------------------|
G|------------------------------------| x3
D|------------------------------------|
A|--7--9--7--9--7--4--14--11--14--11--|
E|------------------------------------|


e|--------------------------------------|
B|--------------------------------------|
G|--------------------------------------|
D|--------------------------------------|
A|--16--14--16--18--16--14--16--18--16--|
E|--------------------------------------|


e|------------------------------------|
B|------------------------------------|
G|------------------------------------| x2
D|------------------------------------|
A|--7--9--7--9--7--4--14--11--14--11--|
E|------------------------------------|


e|------------------------------------------------------------------------------|
B|------------------------------------------------------------------------------|
G|------------------------------------------------------------------------------|
D|------------------------------------------------------------------------------|
A|--7--9--7--9--7--4--2-4-2-4-2-4-2-4-2-4-2-4-2-4-2-4-2-4-2-4-2-4-2-4\3\2/3/4\--|
E|------------------------------------------------------------------------------|






| /  slide up
| \  slide down
| h  hammer-on
| p  pull-off
| ~  vibrato
| +  harmonic
| x  Mute note
===============================================================================
Добавлено: 30.03.2012
Другие материалы по этой песне:
  • Аккорды и текст

Страница создана 30.03.2012
http://primanota.ru/dead-meadow/lady-chords.htm
Привет, Гость.
Предлагаем пройти революционный курс по гитаре.
Подарок от PrimaNota.Ru, забирай!