PrimaNota.ru - самый крупный в мире бесплатный архив песенных текстов, аккордов, табулатур и нот


Dead Meadow - Jusiamere Farm - таба, видео

Регистрация Запомнить меня
Войти через:  Facebook Google Twitter Vk Yandex Mail.ru

Dead Meadow - Jusiamere Farm - таба, видео

Печатать
Просмотров: 63
Уроки эстрадного вокала в Санкт-Петербурге
Dead Meadow - "Jusiamere Farm" 
From 'Howls From The Hills' (2001)

Tuning: F# G# C# G# C# c#

Intro/Main riff:

c#|--0---0---0---0---0---0---0---0---0---0---0---0--|
C#|--0---0---0---8---0---0---0---0---0---8---0---8--|
G#|-10---8--10---0--10---8--10---8--10---0--10---0--|
C#|--0---0---0---0---0---0---0---0---0---0---0---0--|
G#|-10--10--10--10--10--10--10--10--10--10--10--10--|
F#|--x---x---x---x---x---x---x---x---x---x---x---x--|

c#|--0---0---0---0---0---0---0---0---0---0---0---0---0---0--|
C#|--0---0---0---8---0---0---0---0---0---0---0---0---0---0--|
G#|-10---8--10---0--10---8--10---8--10---8--10---9---8---9--|
C#|--0---0---0---0---0---0---0---0---0---0---0---0---0---0--|
G#|-10--10--10--10--10--10--10--10--10--10--10--10--10--10--|
F#|--x---x---x---x---x---x---x---x---x---x---x---x---x---x--|

c#|--0---0---0---0---0---0---0---0---0---0---0---0--|
C#|--0---0---0---8---0---0---0---0---0---8---0---8--|
G#|-10---8--10---0--10---8--10---8--10---0--10---0--|
C#|--0---0---0---0---0---0---0---0---0---0---0---0--|
G#|-10--10--10--10--10--10--10--10--10--10--10--10--|
F#|--x---x---x---x---x---x---x---x---x---x---x---x--|

c#|--0---0---0---0---0---0--0--0--0--|
C#|--0---0---0---8---0---0--0--0--0--|
G#|-10---8--10---0--10---8--8--8--8--|
C#|--0---0---0---0---0---0--0--0--0--|
G#|-10--10--10--10--10---8--8--8--8--|
F#|--x---x---x---x---x---x--x--x--x--|

Verse is pretty much exactly the same as the intro/normal riff, but with this
little interlude:

c#|--0---0---0---0--|
C#|--0---0---0---0--|
G#|--8--13--10--16--|
C#|--0---0---0---0--|
G#|--8--13--10--16--|
F#|--x---x---x---x--|

First breakdown/bridge:

c#|--0--0---0---0--0--|
C#|--0--0---0---0--0--|
G#|--8--7--15--17--8--|
C#|--0--0---0---0--0--|
G#|--8--7--15--17--8--|
F#|--x--x---x---x--x--|

Second breakdown/bridge:

c#|--0--0---0---0--0---0--0---0---0---0---0--0--|
C#|--0--0---0---0--0---0--0---0---0---0---0--0--|
G#|--8--7--15--17--8--10--8--15--14--13--15--8--|
C#|--0--0---0---0--0---0--0---0---0---0---0--0--|
G#|--8--7--15--17--8--10--8--15--14--13--15--8--|
F#|--x--x---x---x--x---x--x---x---x---x---x--x--|

Outro:

c#|--x--x--x--x--x---x-------x--x--x--x--x--|
C#|--7--6--7--6--7----x------0--x--0--x--0--|
G#|--x--x--x--x--x-----3-----0--3--0--3--0--|
C#|--7--7--7--7--7------0----0--0--0--0--0--|
G#|--x--x--x--x--x-------x---x--x--x--x--x--|
F#|--7--7--7--7--7--------5--5--5--5--5--5--|

c#|---x-x--x--x--x--x---x-------x--x--x--x--x--|
C#|--10s7--6--7--6--7----x------0--x--0--x--0--|
G#|---x-x--x--x--x--x-----3-----0--3--0--3--0--|
C#|--10s7--7--7--7--7------0----0--0--0--0--0--|
G#|---x-x--x--x--x--x-------x---x--x--x--x--x--|
F#|--10s7--7--7--7--7--------5--5--5--5--5--5--|
Добавлено: 09.06.2016
Вам также может быть интересно:
Другие материалы по этой песне:
  • Аккорды и текст

Страница создана 09.06.2016
http://primanota.ru/dead-meadow/jusiamere-farm-chords.htm
Привет, Гость.
Предлагаем пройти революционный курс по гитаре.
Подарок от PrimaNota.Ru, забирай!