PrimaNota.ru - самый крупный в мире бесплатный архив песенных текстов, аккордов, табулатур и нот


Dead Meadow - Greensky Greenlake - таба, видео

Регистрация Запомнить меня
Войти через:  Facebook Google Twitter Vk Yandex Mail.ru

Dead Meadow - Greensky Greenlake - таба, видео

Печатать
Просмотров: 224
Transcribed by Danleary

EBDGBE Tuning

Key

 b : Bend 
 r : Release
 / : Slide into
 \ : Slide out of
 h : Hammer on
 p : Pull off
(-): Do not pick note
 = : Vibrato
 x : Mute
_____________________________________________________________________________

***| Tune the A string up one whole step to B |***
_____________________________________________________________________________

Intro/Chorus

Appears again at 1:45 (with distortion)

Strum chords in a sweep-like fashion. He riffs around that final E
chord a few times throughout the song, creating some variation.

Let Ring.

0:00                     0:04                  0:08
                                       E
e|--------5---------7-4---------0-----------------|
B|--------3---------5-----------2------0-----3-0--|
G|-----4--4------6--6-----------2------1h2p1------|
D|---------------------------4---------2----------|
B|--0---------0-----------0---------0--0----------|
E|------------------------------------------------|
                                             Repeat
_____________________________________________________________________________

Solo

With wah-wah pedal.

0:40                          0:44                0:48                 0:51
                                                          
e|-------------------------------------------------------------------------|
B|-------------------------------------------------------------------------|
G|--------------4b6--4=======-2-4--2--------------------------4b6--2======-|
D|--2-4--4-2-4------------------------4--2--4=====-2-4--4-2-4--------------|
B|-------------------------------------------------------------------------|
E|-------------------------------------------------------------------------|

0:52               0:54               0:57        0:59               1:03
                                     
e|----------------------------------------------------------------------|
B|----------------------------------------------------------------------|
G|--4-2-4----2------------------------4b6--4=====--2-4--2---------------|
D|---------4----4--2=====-2-4--4-2-4----------------------4--2--4=====--|
B|----------------------------------------------------------------------|
E|----------------------------------------------------------------------|

1:03                       1:07             |1:37

e|------------------------------------------|-------|
B|------------------------------------------|-------|
G|---------2----2-----------2-4--2----2-----|-------|
D|--2-4--4----4----4-2=====---------4----4--|-------|
B|------------------------------------------|--2-0--|
E|------------------------------------------|-------|
                      [Repeat; Back to 0:40]
_____________________________________________________________________________

2:40                             2:43
    E
e|--0---0-0-0--0-0-0-0-0-0-0-0-0-0--|
B|--0---0-0-0--0-0-0-0-0-0-0-0-0-0--|
G|--1---1-1-1--1-1-1-1-1-1-1-1-1-1--|
D|--2---2-2-2--2-2-2-2-2-2-2-2-2-2--|
B|--0---0-0-0--0-0-0-0-0-0-0-0-0-0--|
E|--0---0-0-0--0-0-0-0-0-0-0-0-0-0--|
_____________________________________________________________________________

Verse

Let the open B ring.

2:43                              2:46                          2:49
                                                      
e|----------------------------------------------------------------|
B|----------------------------------------------------------------|
G|-----9h11p9----9------------------------------------------------|
D|------------11---11----9h11p9-7-9--/16---14h16-16b18----16====--|
B|--0---------------------------------0---------------------------|
E|----------------------------------------------------------------|

2:49                                                      2:53

e|-----------------------------------------------------------|
B|-----------------------------------------------------------|
G|-----------------------------9h11p9----9-------------------|
D|--14-16-16b18r16-14-16--------------11---11----9h11p9-7-9--|
B|------------------------0----------------------------------|
E|-----------------------------------------------------------|

2:54                              2:57

e|-----------------------------------|
B|-----------------------------------|
G|-----------------------------------|
D|--/16-7-9-7-9-7-9-7-9-7-9-7-9-7-9--|
B|---0-------------------------------|
E|-----------------------------------|


_____________________________________________________________________________
Добавлено: 01.07.2012
Другие материалы по этой песне:
  • Аккорды и текст

Страница создана 27.02.2012
http://primanota.ru/dead-meadow/greensky-greenlake-chords.htm
Привет, Гость.
Предлагаем пройти революционный курс по гитаре.
Подарок от PrimaNota.Ru, забирай!