PrimaNota.ru - самый крупный в мире бесплатный архив песенных текстов, аккордов, табулатур и нот


Dead Meadow - Babbling Flower - таба, видео

Регистрация Запомнить меня
Войти через:  Facebook Google Twitter Vk Yandex Mail.ru

Dead Meadow - Babbling Flower - таба, видео

Печатать
Просмотров: 102
"Babbling Flower"
By: Dead Meadow
Off the album, "Shivering Kings and Others"

Tabbed by: Jason Bloss
email: valentinezxifax@yahoo.com

Standard Tuning
(EADGBe)


Intro: (0:00-0:21)

e|-------------------------------------------------------------------------|
B|-------------------------------------------------------------------------|
G|-------------------------------------------------------------------------|
D|-------------------------------------------------------------------------|
A|---------------------------7-0-7-0-5b----------------------------7-0-7-0-|
E|-7~~5-7-5-7-0-5-5-7~~5-7-5------------7~~5-7-5-7-0-5-5-7~~5-7-5----------|

e|------------------------------------------------------------------------|
B|------------------------------------------------------------------------|
G|------------------------------------------------------------------------|
D|------------------------------------------------------------------------|
A|-5b---------------------------7-0-7-0-5b----------------------5---------|
E|----7~~5-7-5-7-0-5-5-7~~5-7-5------------7~~5-7-5-7-3-5-5-0-----0-5-5-7~|


Verse: (0:21-0:41)

e|------------------------------------------------------------------------|
B|------------------------------------------------------------------------|
G|------------------------------------------------------------------------|
D|------------------------------------------------------------------------|
A|-------------------------------------------------------------7-0-7-0-5b-|
E|-7~~5-7-5-7-0-5-5-7~~5-7-5-7-0-5-5-7~~5-7-5-7-0-5-5-7~~5-7-5------------|


e|------------------------------------------------------------------------|
B|------------------------------------------------------------------------|
G|------------------------------------------------------------------------|
D|------------------------------------------------------------------------|
A|---------------------------7-0-7-0-5b----------------------5b-----------|
E|-7~~5-7-5-7-0-5-5-7~~5-7-5------------7~~5-7-5-7-3-5-5-0------0-5-5-7~~-|


Verse Break: (0:42-1:01) with wah

e|---------------------------------------------------------------------------|
B|---------------------------------------------------------------------------|
G|---------------------------------------------------------------------------|
D|-----------7---7---7h9~~9-9p7---------------------------7---7h9~9p7---9/11-|
A|-7p5---7/9---9---9------------9-7-0-7-0-5b----------7/9---9---------9------|
E|-----7-------------------------------------7~~5-7-5------------------------|


e|-------------------------------------------------------------------------|
B|-------------------------------------------------------------------------|
G|-9-----------------------------------------------------------------------|
D|-------------------------------------------------------------------------|
A|---12/5-0-5-0-5b---------------------------7-0-7-0-5b---5-0-5b-----------|
E|-----------------7~~5-7-5-7-0-5-5-7~~5-7-5------------7--------7-5-5-0---|


e|-------------|
B|-------------|
G|-------------|
D|-------------|
A|-5b----------|
E|----0-5-5-7~~|


Verse: (1:02-1:21)

Played the exact way as in the first verse.

Verse Break: (1:22-1:41) with wah


e|---------------------------------------------------------------------------|
B|---------------------------------------------------------------------------|
G|---------------------------------------------------------------------------|
D|-----------7---7---7h9~~9-9p7---------------------------7---7h9~9p7---9/11-|
A|-7p5---7/9---9---9------------9-7-0-7-0-5b----------7/9---9---------9------|
E|-----7-------------------------------------7~~5-7-5------------------------|


e|-------------------------------------------------------------------------|
B|-------------------------------------------------------------------------|
G|-9-----------------------------------------------------------------------|
D|-------------------------------------------------------------------------|
A|---12/5-0-5-0-5b---------------------------7-0-7-0-5b--------------------|
E|-----------------7~~5-7-5-7-0-5-5-7~~5-7-5------------7~~5-7-5-7-3-5-5-0-|


e|-------------|
B|-------------|
G|-------------|
D|-------------|
A|-5b----------|
E|----0-5-5-7~~|


Bridge: (1:42-2:21) lots of wah


e|------------------------------------------------------------------------|
B|------------------------------------------------------------------------|
G|------------------------------------------------------------------------|
D|-/9-7-9---9-7------9--7----9-7---7---9-7--9-7-----9--7---9-7---7~---7---|
A|--------------9-5-------5------9---9----------9-5------5-----9----9-----|
E|------------------------------------------------------------------------|


e|--------------------------------------------------------------------------|
B|--------------------------------------------------------------------------|
G|-9b11r9p7-----------------------------------------------------11~~--------|
D|----------9~--9-7-----9--7---/9-7---7-----7--/9-7-----9--7----------------|
A|------------------9-5------5------9---9-9---------9-5------5---9~~9-7-5---|
E|------------------------------------------------------------------------7-|


e|-------------------------------------------------------|
B|-------------------------------------------------------|
G|-----14~~-9-9-14~~-9-11-14-16~~-14-14-16~~------14-14~~|
D|-------------------------------------------------------|
A|-5-9-12~~-7-7-12~~-7--9-12-14~~-12-12-14~~-14-9-12-12~~|
E|-------------------------------------------------------|


Guitar Solo: (2:22-3:01)

The guitar solo is quite long and caped with fuzz, feedback, reverb, and with everything 
it is hard to make out the notes, but I will be working on the solo. I included the 
part for the solo.

Rhythm Guitar over solo:

e|--------------------------------------------------------------------------|
B|--------------------------------------------------------------------------|
G|--------------------------------------------------------------------------|
D|--------------------------------------------------------------------------|
A|---------------------------7-0-7-0-5b---------------------------7-0-7-0-5-|b
E|-7~~5-7-5-7-0-5-5-7~~5-7-5------------7~~5-7-5-7-0-5-5-7~~5-7-5-----------|


e|-------------------------------------------------------------------------|
B|-------------------------------------------------------------------------|
G|-------------------------------------------------------------------------|
D|-------------------------------------------------------------------------|
A|---------------------------7-0-7-0-5b----------------------5b------------|
E|-7~~5-7-5-7-0-5-5-7~~5-7-5------------7~~5-7-5-7-3-5-5-0~~~---0-5-5-7~~--|


e|--------------------------------------------------------------------------|
B|--------------------------------------------------------------------------|
G|--------------------------------------------------------------------------|
D|-----------7---7---7h9~~-9p7----------------------------------------------|
A|-7p5---7/9---9---9-----------9-7-0-7-0-5b---------------------------7-0-7-|
E|-----7------------------------------------7~~5-7-5-7-0-5-5-7~~5-7-5-------|


e|-------------------------------------------------------------------------|
B|-------------------------------------------------------------------------|
G|-------------------------------------------------------------------------|
D|-------------------------------------------------------------------------|
A|-0-5b---------------------------7-0-7-0-5b----------------------5b-------|
E|------7~~5-7-5-7-0-5-5-7~~5-7-5------------7~~5-7-5-7-3-5-5-0~~~---5-5-7~|


Outro: (3:02-end of song) with a slow wah sweep


e|-------------------------|
B|-------------------------|
G|-------------------------|
D|-------------------------|
A|-------------------------|
E|-7~~5-7-5-7-5-7-5-7-5-7~~|

This is pretty much it, aside from some crazy solo stuff that I am just too tired to tab 
right now.  Awesome song to jam with your friends to, a fun song to play. This is my 
tab, so if there's any mistakes or if you have any questions, my email address is 
at the top. Enjoy!
Добавлено: 21.02.2012
Другие материалы по этой песне:
  • Аккорды и текст

Страница создана 21.02.2012
http://primanota.ru/dead-meadow/babbling-flower-chords.htm
Привет, Гость.
Предлагаем пройти революционный курс по гитаре.
Подарок от PrimaNota.Ru, забирай!