PrimaNota.ru - самый крупный в мире бесплатный архив песенных текстов, аккордов, табулатур и нот


Dead Meadow - At The Edge Of The Wood - таба, видео

Регистрация Запомнить меня
Войти через:  Facebook Google Twitter Vk Yandex Mail.ru

Dead Meadow - At The Edge Of The Wood - таба, видео

Печатать
Просмотров: 81
"AT THE EDGE OF THE WOOD"

Artist: Dead Meadow
Tuning: EBDGBE

I'd firstly like to point out that this tab is NOT my original tab.The credit goes to 
"deamow", I am simply putting it up here for convenience sake, and to neaten up the tab.
Intro:

E |---------------------------------------2-3-2-3-2----0---2---2---0-0--|
B |-0-0-0-0-0-3-0---------------------2-2-2-2-2-3-3----2---2---3-3-3-3--|
G |-4-2-4-2-4-4-0------------0--0---2------------2-2---2---2---2-2-2-2--|
D |-4-4-4-4-4-4-2---2-2-2-2/4-2---0--------------------4---4---0-0-0-0--|
B |-0-0-0-0-0-0-0---3-0-3--0--0------------------------4---3---3-3-3-3--|
E  -----------------0---0-----------------------------------------------|



|-0--------0--------0-------0------|x2 |R
|-0-----3-3-3-2-3-2-3-2-0----------|   |E
|-1-----1-1-1-1-1-1-1-1-1----------|   |P
|-2-----2-2-2----------------------|   |E
|-0--------------------------------|   |A
|-0--------------------------------|   |T


Verse:

|-5(0)-
|-7------|
|-7------|
|-7------|
|-0------|
|--------| Under the tree's shade

|-0---0---|
|-7---0---|
|-7---4---|
|-6---6---|
|-0---0---|
|---------| at the edge of the wood

|-0---0---0---|
|-7---5---0---|
|-7---6---1---|
|-7---7---2---|
|-0---0---0---|
|----------0--| The shadow of a shape
had me frozen where I stood

The axe is already
lying by the roots of the tree
How many of you
know what I mean when I say
I'm not going to be the one
to pick it up and swing
Добавлено: 08.08.2013
Вам также может быть интересно:
Другие материалы по этой песне:
  • Аккорды и текст

Страница создана 08.08.2013
http://primanota.ru/dead-meadow/at-the-edge-of-the-wood-chords.htm
Привет, Гость.
Предлагаем пройти революционный курс по гитаре.
Подарок от PrimaNota.Ru, забирай!