PrimaNota.ru - самый крупный в мире бесплатный архив песенных текстов, аккордов, табулатур и нот


Dead Man Ray - Tunnels - таба, видео

Регистрация Запомнить меня
Войти через:  Facebook Google Twitter Vk Yandex Mail.ru

Dead Man Ray - Tunnels - таба, видео

Печатать
Просмотров: 90
Уроки эстрадного вокала в Санкт-Петербурге
Tunnels 

trans. by Avi

Intro – 
e|------|------|------|----------|------|------|------|----------|
B|------|------|------|----------|------|------|------|----------|
G|------|------|------|----------|------|------|------|----------|
D|------|------|------|----------|------|------|------|----------|
A|------|-4...-|-7...-|-5...-5---|------|-4...-|-7...-|-5...-----|
E|-5...-|------|------|--------7-|-5...-|------|------|------3-3-|

First verse - 
    A    C#m    E     D 
e|-----|-----|-----|-----|
B|-----|-----|-----|-----|
G|-----|--6--|--9--|--7--|
D|--7--|--6--|--9--|--7--|
A|--7--|--4--|--7--|--5--|
E|--5--|-----|-----|-----|

Chorus - 
    G    F#m    A     A
e|-----|-----|-----|-----|
B|-----|-----|-----|-----|
G|-----|-----|-----|-----|
D|--5--|--4--|--7--|--7--|
A|--5--|--4--|--7--|--7--|
E|--3--|--2--|--5--|--5--|

Second verse - 
    E     D    C#m   C#m
e|-----|-----|-----|-----|
B|-----|-----|-----|-----|
G|--9--|--7--|--6--|--6--|
D|--9--|--7--|--6--|--6--|
A|--7--|--5--|--4--|--4--|
E|-----|-----|-----|-----|

Main riff -
e|-------9h10h12-10-|
B|-10-12------------|
G|------------------|
D|------------------|
A|------------------|
E|------------------|

At 1:32 -  
e|-------------|
B|-------------|
G|---(twice)---|
D|-------------|
A|-7-7/9-7-5-4-|
E|-------------|

On 1:47 – 
e|-------------|
B|-------------|
G|--9-7-7-7-6--|
D|---(twice)---|
A|-------------|
E|-------------|

Bridge – 
          A 
e|------------------|
B|------------------|
G|------------------|
D|------------------|
A|------------------|
E|-5-5-5-5-5-5-5...-|

And then...
e|------17------17------17-----|
B|-----------------------------|
G|-----------------------------|
D|-14-------14------14------14-|
A|-----------------------------|
E|-----------------------------|

...their BEST song for sure, just to wake up with it is UNBELIEVABLE! :-)

     
Добавлено: 06.07.2013
Вам также может быть интересно:
Другие материалы по этой песне:
  • Аккорды и текст

Страница создана 06.07.2013
http://primanota.ru/dead-man-ray/tunnels-chords.htm
Привет, Гость.
Предлагаем пройти революционный курс по гитаре.
Подарок от PrimaNota.Ru, забирай!