PrimaNota.ru - самый крупный в мире бесплатный архив песенных текстов, аккордов, табулатур и нот


Dead Letter Circus - The Mile - таба, видео

Регистрация Запомнить меня
Войти через:  Facebook Google Twitter Vk Yandex Mail.ru

Dead Letter Circus - The Mile - таба, видео

Печатать
Просмотров: 158
-------------------------------------------------------------
                 The Mile - Dead Letter Circus
-------------------------------------------------------------
Tabbed by: Kristyn Lee
Email: spot_the_village_loony_836@hotmail.com

Tuning: Drop D

Intro
e|--------------------------------13------|
B|-//9xxx9xxx9xxx9xxx9xxx9xxx9-13----13---|
G|----------------------------------------|
D|----------------------------------------|
A|----------------------------------------|
D|----------------------------------------|

e|-----------------------11----13-11------|
B|--8xxx8xxx8xxx8xxx8-11----11-------11---|
G|----------------------------------------|
D|----------------------------------------|
A|----------------------------------------|
D|----------------------------------------|

e|-------------------------------------------------------------------|
B|--11111111111111111111111111111111--16161616--10101010-9999-8888---|
G|--x-x-x-x-x-x-x-x-x-x-x-x-x-x-x-x---x-x-x-x---x-x-x-x--xxxx-xxxx---|
D|--8-8-8-8-8-8-8-8-8-8-8-8-8-8-8-8---13131313--7-7-7-7--6666-5555---|
A|-------------------------------------------------------------------|
D|-------------------------------------------------------------------|

0:15 this part is missing a couple of notes, sorry.
e|--13~---11~--------11-13---|
B|--------------9-11---------|
G|---------------------------|
D|---------------------------|
A|---------------------------|
D|---------------------------|
0:25
e|---------------------------|
B|---------------------------|
G|--15\14\10-15\14-10-13\12--|
D|--x--x--x--x--x--x--x--x---|
A|--13\12\8--13\12-8--11\10--|
D|---------------------------|
0:28
e|--13-13p11--13p11----13-13-13p11-13p11------------------------|
B|------------------13-------------------13--11-11-11-11-11-11--|
G|--------------------------------------------------------------|x2
D|--------------------------------------------------------------|
A|--------------------------------------------------------------|
D|--------------------------------------------------------------|
0:42
e|---------------|
B|--999999999----|
G|---------------|
D|---------------|
A|---------------|
D|---------------|

0:44                                 t t  
e|-------------------------------------11---|
B|--9-9-9-9-9-9-9-9--8-8-8-8-8-8-8-8-11-----|
G|------------------------------------------|
D|------------------------------------------|
A|------------------------------------------|
D|------------------------------------------|
0:55
e|---------------------------|
B|---------------------------|
G|--15\14\10-15\14-10-13\12--|
D|--x--x--x--x--x--x--x--x---|
A|--13\12\8--13\12-8--11\10--|
D|---------------------------|

e|--13-13p11--13p11----13-13-13p11-13p11------------------------|
B|------------------13-------------------13--11-11-11-11-11-11--|
G|--------------------------------------------------------------|x2
D|--------------------------------------------------------------|
A|--------------------------------------------------------------|
D|--------------------------------------------------------------|

chorus 
guitar 1
e|-----------------------------------------------------|
B|-----------------------------------------------------|
G|-10101010101010101010101010101010-1515151515151515---|
D|-x-x-x-x-x-x-x-x-x-x-x-x-x-x-x-x--x-x-x-x-x-x-x-x----|
A|-8-8-8-8-8-8-8-8-8-8-8-8-8-8-8-8--1313131313131313---|
D|-----------------------------------------------------|
guitar 2
e|-----------------------------------------------------|
B|-----------------------------------------------------|
G|----------------101010101010-151515151515------------|
D|--333333333333--x-x-x-x-x-x--x-x-x-x-x-x-------------|
A|--333333333333--8-8-8-8-8-8--131313131313------------|
D|--333333333333---------------------------------------|


e|-----------------------------------------------------|
B|----9-11-------------------11-11-11-11-11-11---------|
G|-10-------8-10-8----8-10---------------------8-10----|
D|-----------------10------8---------------------------|
A|-----------------------------------------------------|
D|-----------------------------------------------------|

                      t t  t 
e|------------------8-11-13--------------------------|
B|-----9-11------------------------------------------|
G|--10------8-10-------------------------------------|
D|---------------------------------------------------|
A|---------------------------------------------------|
E|---------------------------------------------------|

1:40
e|--13-13p11--13p11----13-13-13p11-13p11------------------------|
B|------------------13-------------------13--11-11-11-11-11-11--|
G|--------------------------------------------------------------|x2
D|--------------------------------------------------------------|
A|--------------------------------------------------------------|
D|--------------------------------------------------------------|

1:54
e|------------------------|
B|--9~--------6~----4~----|
G|--8~--------5~----3~----|x4
D|------------------------|
A|------------------------|
D|------------------------|

                                t t  t  t 
e|--13-13-11-13----13-13-11---------------------|
B|--------------13--------------9-11-13-15-16---|
G|--------------------------10------------------|
D|----------------------------------------------|
A|----------------------------------------------|
D|----------------------------------------------|

Repeat Chorus


e|-----------------------------------------|
B|-----------------------------------------|
G|--10-12-13-10-12-13--20-17-13-15-/20-----|
D|--x--x--x--x--x--x---x--x--x--x---x------|
A|--8--10-11-8--10-11--18-15-11-13-/18-----|
D|-----------------------------------------|

e|-----------------------------|
B|-----------------------------|
G|--10-12-13-10-12-13--20-22---|
D|--x--x--x--x--x--x----x--x---|
A|--8--10-11-8--10-11--18-20---|
D|-----------------------------|

"i said lately"
e|---------------------------------------------------------------------|
B|--9999-9999-99-9999-8888-6666-6666-66-66-11-11-11-11-16-16-16-16-18--|
G|---------------------------------------------------------------------|
D|---------------------------------------------------------------------|
A|---------------------------------------------------------------------|
D|---------------------------------------------------------------------|

last part
e|------11-11-11-11-13-13-13-13-11-11-11-11---------------------------|
B|-9999-------------------------------------13-13-13-13-11-11-11-11---|
G|--------------------------------------------------------------------|
D|--------------------------------------------------------------------|
A|--------------------------------------------------------------------|
D|--------------------------------------------------------------------|

e|--------------------------------------------|
B|--------------------------------------------|
G|--12-12-12-12-10-10-10-10-10----------------|
D|--------------------------------------------|
A|--------------------------------------------|
D|--------------------------------------------|


| /  slide up
| \  slide down
| h  hammer-on
| p  pull-off
| ~  vibrato
| +  harmonic
| x  Mute note
=====================================================================
Добавлено: 12.03.2012
Другие материалы по этой песне:

Страница создана 12.03.2012
http://primanota.ru/dead-letter-circus/the-mile-chords.htm
Привет, Гость.
Предлагаем пройти революционный курс по гитаре.
Подарок от PrimaNota.Ru, забирай!