PrimaNota.ru - самый крупный в мире бесплатный архив песенных текстов, аккордов, табулатур и нот


Dead Letter Circus - The Drum - текст песни, таба, видео

Регистрация Запомнить меня
Войти через:  Facebook Google Twitter Vk Yandex Mail.ru

Dead Letter Circus - The Drum - текст песни, таба, видео

Печатать
Просмотров: 131
------------------------------------------------------------
                             The Drum - Dead Letter Circus
------------------------------------------------------------
Tabbed by: Kristyn Lee
Email: spot_the_village_loony_836@hotmail.com

Tuning: Standard

I decided to only tab the second half of the song coz the first half is too hard to tab.
Maybe when i learn how to use guitarpro more i can do the whole song. 
Please take note that you need to tremolo pick nearly all of the notes. 
I started at 2:46

     "what if i'm not interested..."
e|-------------------------------------------------------------|
B|-------------------------------------------------------------|
G|------------------------------------------------9~~-9h11-----|
D|---9~----11~----11~~----9~~-----12~--11~---9~----------------|
A|----------------9-~~-----------------------------------------|
E|-------------------------------------------------------------|

3:08
    t  t  t  t  t    t  t  t  t  t  t  t
e|--------------------------------------------------|
B|--12-15-17-19-20-\-15-15-17-19-20\15-19-17~~~-----|
G|--------------------------------------------------|
D|--------------------------------------------------|
A|--------------------------------------------------|
E|--------------------------------------------------|

3:47   
these are strummed really fast, listen to song to hear the timing.
e|--------------------------------------------------|
B|---5-10-12\5-8-101215-/20\17-20\17-17--20\17-22---|
G|---x-x--x-x--x-x-x-x--x--x--x-x---x---x--x--x-----|
D|---2/7--9-\2-5-7-9-12-/17\14-17\14-14--14\14-19---|
A|--------------------------------------------------|
E|--------------------------------------------------|  

"burning up my eyes..."
e|-------------------------------------------------------------------|
B|--13--13--13--13--13h15--15--15--15--15--17--17--17--17--17--17----|
G|----14--14--14--14-----14--14--14--14--14--14--14--14--14--14------|
D|-------------------------------------------------------------------|
A|-------------------------------------------------------------------|
E|-------------------------------------------------------------------|

e|-----------------------|
B|--20-20-20-20-17~~-----|
G|-----------------------|
D|-----------------------|
A|-----------------------|
E|-----------------------|

4:30  guitar fades in
pick fast
e|----------|
B|--10------|
G|----------|
D|----------|
A|----------|
E|----------|
pick fast, slide in the 12 
                        t  t  t  t  t         
e|---11-----------------12-------11-12-----|
B|---10--------------------12-10-----------|
G|-----------------------------------------|
D|-----------------------------------------|
A|-----------------------------------------|
E|-----------------------------------------|

4:55
e|-------------------------|
B|---14--7--14--14-14------|
G|---x--x--x----x--x-------|
D|---11--4--11--14\13------|
A|-------------------------|
E|-------------------------|
5:06            
e|----------------------------------------|
B|---12/17-12/16-9-12/14\9--14--19--------|
G|---x--x--x--x--x-x--x-x--x----x---------|
D|---9/14--9/13--6-9-/11\6--11--16--------|
A|----------------------------------------|
E|----------------------------------------|
5:14
e|-----------------------------19------------|
B|---14-14-14-14-14-19--14--17----19---------|
G|-------------------------------------------|x2
D|-------------------------------------------|
A|-------------------------------------------|
E|-------------------------------------------|

5:20 solo, sorry i can't help with the strumming, you just play by ear. 
e|------------------------------------------------------------|
B|--12-16--9/17-16\9-12/14\9/12/14/17-16\12/14\9/12-14-14/17----|
G|--x--x------------------------------------------------------|
D|--9--13-----------------------------------------------------|
A|------------------------------------------------------------|
E|------------------------------------------------------------|

e|----------------------------|
B|---16\12-14\9-12-14---------|
G|----------------------------|
D|----------------------------|
A|----------------------------|
E|----------------------------|

5:31
e|------------------------------------------------|
B|---16-16-16-17-14-12-14-16-14-14-14-14----------|
G|------------------------------------------------|
D|------------------------------------------------|
A|------------------------------------------------|
E|------------------------------------------------|


5:34
Im really not sure about this part, play it a few times til the end of the song
e|----------------14-14-16-16h21p16-------------------------|
B|----14-14-17-17-------------------------------------------|
G|----------------------------------------------------------|
D|----------------------------------------------------------|
A|----------------------------------------------------------|
E|----------------------------------------------------------|

The End
Добавлено: 05.04.2012
Другие материалы по этой песне:
  • Аккорды и текст

Страница создана 05.04.2012
http://primanota.ru/dead-letter-circus/the-drum-chords.htm
Привет, Гость.
Предлагаем пройти революционный курс по гитаре.
Подарок от PrimaNota.Ru, забирай!