PrimaNota.ru - самый крупный в мире бесплатный архив песенных текстов, аккордов, табулатур и нот


Dead Letter Circus - Lines - текст песни, таба, видео

Регистрация Запомнить меня
Войти через:  Facebook Google Twitter Vk Yandex Mail.ru

Dead Letter Circus - Lines - текст песни, таба, видео

Печатать
Просмотров: 142
--------------------------------------------------------------
                  Lines - Dead Letter Circus
--------------------------------------------------------------
Tabbed by: Kristyn Lee
Email: spot_the_village_loony_836@hotmail.com


Tuning: Drop D

e|------------66---6----6----9-9-7-6----------|
B|---------------4---44---4-------------------|
G|--------------------------------------------|
D|--------------------------------------------|
A|--2/6---------------------------------------|
D|--------------------------------------------|
guitar 2 plays this at 0:18
e|------------------------------------------------------------|
B|--1111111111111111111111111111111111111111111111111111\9----|
G|--x-x-x-x-x-x-x-x-x-x-x-x-x-x-x-x-x-x-x-x-x-x-x-x-x-x--x----|
D|--8-8-8-8-8-8-8-8-8-8-8-8-8-8-8-8-8-8-8-8-8-8-8-8-8-8-\6----|
A|------------------------------------------------------------|
D|------------------------------------------------------------|

0:32 guitar 1
e|---9-9-7-6--4h6p4h6p4---4h6p4h6p4---4h6p4h6p4h6--9-9--7-7-6----|
B|---------------------------------------------------------------|
G|---------------------------------------------------------------|
D|---------------------------------------------------------------|
A|---------------------------------------------------------------|
D|---------------------------------------------------------------|
0:41  guitar 2
e|------------------------------|
B|------------------------------|
G|------------------------------|
D|------------------------------|
A|------------------------------|
D|--6-6-6-6-6-6-6-6-6-6-6-6-----|
    . . . . . . . . . . . .
0:49
e|-----------------------------------------------------|
B|-----------------------------------------------------|
G|--444444/666666/888888/111111111111/131313131313-----|
D|--xxxxxx-xxxxxx-xxxxxx-x-x-x-x-x-x--x-x-x-x-x-x------|
A|--222222/444444/666666/9-9-9-9-9-9-/111111111111-----|
D|-----------------------------------------------------|

chorus
guitar 1
e|-----------------------------------------------------|
B|-----------------------------------------------------|
G|-----------------------------------------------------|
D|-----------------------------------------------------|
A|--4444-0000-6666-6666--------------------------------|
D|--4444-0000-6666-6666--------------------------------|
guitar 2   play with these notes
e|----14-----11----11-11-11-------------|
B|--------------------------14----------|
G|-------13-----------------------------|
D|--------------------------------------|
A|--------------------------------------|
D|--------------------------------------|

repeat verse and chorus. I haven't figured out the rest yet.
solos are a pain to tab.

| .  palm mute
| /  slide up
| \  slide down
| h  hammer-on
| p  pull-off
| ~  vibrato
| +  harmonic
| x  Mute note
=========================================================
Добавлено: 06.03.2012
Другие материалы по этой песне:
  • Аккорды и текст

Страница создана 06.03.2012
http://primanota.ru/dead-letter-circus/lines-chords.htm
Привет, Гость.
Предлагаем пройти революционный курс по гитаре.
Подарок от PrimaNota.Ru, забирай!