PrimaNota.ru - самый крупный в мире бесплатный архив песенных текстов, аккордов, табулатур и нот


Dead Letter Circus - Here We Divide - текст песни, таба, видео

Регистрация Запомнить меня
Войти через:  Facebook Google Twitter Vk Yandex Mail.ru

Dead Letter Circus - Here We Divide - текст песни, таба, видео

Печатать
Просмотров: 185
--------------------------------------------------------
          Here We Divide - Dead Letter Circus
--------------------------------------------------------
Tabbed by: Kristyn Lee
Email: spot_the_village_loony_836@hotmail.com

Tuning: Drop D or Standard

Intro/main riff
e|--------------------------------------------------------|
B|------12-14----12-14----12-14----12-14-15-14-12---------|
G|---11-------11-------11-------11----------------14------|
D|--------------------------------------------------------|
A|--------------------------------------------------------|
D|--------------------------------------------------------|

0:17
e|------------------------------|
B|------------------------------|
G|--------------------22-44-----|x2
D|---4444444444444444-----------|
A|---4444444444444444-----------|
D|---4444444444444444-----------|

0:26
e|---------------------------------------------------------------------|
B|---------------------------------------------------------------------|
G|---11-11-11-11-11-11-11-11-11-11-11-13-13-13-13-13-13-14-14-14-14----|x2
D|---------------------------------------------------------------------|
A|---------------------------------------------------------------------|
D|---------------------------------------------------------------------|
0:35
e|--------------------------------------------------------|
B|------12-14----12-14----12-14----12-14-15-14-12---------|
G|---11-------11-------11-------11----------------14------|
D|--------------------------------------------------------|
A|--------------------------------------------------------|
D|--------------------------------------------------------|

0:53 Tremolo pick
"slow down..."
e|---------------------------------------------|
B|----16-------17-------19-------16------14----|
G|---------------------------------------------|
D|---------------------------------------------|
A|---------------------------------------------|
D|---------------------------------------------|
1:06  "here open wide..."
e|--------------------------------------------------------|
B|------12-14----12-14----12-14----12-14-15-14-12---------|
G|---11-------11-------11-------11----------------14------|
D|--------------------------------------------------------|
A|--------------------------------------------------------|
D|--------------------------------------------------------|
1:15  "when it comes around..."
e|------------------------------|
B|------------------------------|
G|--------------------22-44-----|x2
D|---4444444444444444-----------|
A|---4444444444444444-----------|
D|---4444444444444444-----------|
1:23   "i cannot stay..."
e|---------------------------------------------------------------------|
B|---------------------------------------------------------------------|
G|---11-11-11-11-11-11-11-11-11-11-11-13-13-13-13-13-13-14-14-14-14----|x2
D|---------------------------------------------------------------------|
A|---------------------------------------------------------------------|
D|---------------------------------------------------------------------|

Tremolo pick
"slow down, hold on..."
e|---------------------------------------------|
B|----16-------17-------19-------16------14----|
G|---------------------------------------------|x2
D|---------------------------------------------|
A|---------------------------------------------|
D|---------------------------------------------|
1:59
e|-------------------------------------|
B|---17--17--17-----15--15--15--15-----|
G|-----16--16--16-16--16--16--16--16---|x4
D|-------------------------------------|
A|-------------------------------------|
D|-------------------------------------|
2:17
e|-----------------------------------------------|
B|---14---14---14---14---14---14---14---14-------|
G|------16---16---16---16---16---16---16---16----|
D|-----------------------------------------------|
A|-----------------------------------------------|
D|-----------------------------------------------|
2:21
e|-------------------------------------|
B|---17--17--17-----15--15--15--15-----|
G|-----16--16--16-16--16--16--16--16---|x2
D|-------------------------------------|
A|-------------------------------------|
D|-------------------------------------|
2:30
e|-----------------------------------------------|
B|---14---14---14---14---14---14---14---14-------|
G|------16---16---16---16---16---16---16---16----|
D|-----------------------------------------------|
A|-----------------------------------------------|
D|-----------------------------------------------|
2:35
e|-------------------------------------|
B|---17--17--17-----15--15--15--15-----|
G|-----16--16--16-16--16--16--16--16---|x1
D|-------------------------------------|
A|-------------------------------------|
D|-------------------------------------|
2:39
e|-----------------------------------------------|
B|---14---14---14---14---14---14---14---14-------|
G|------16---16---16---16---16---16---16---16----|
D|-----------------------------------------------|
A|-----------------------------------------------|
D|-----------------------------------------------|

2:46
e|----------------|
B|----------------|
G|--4-4-4-4-4-----|
D|--4-4-4-4-4-----|
A|--2-2-2-2-2-----|
D|----------------|

Bridge
2:48
e|-----------------------------------|
B|-----------------------------------|
G|---16-x-16-x-16-16/1818\1414/16----|x3
D|---x--x-x--x-x--x--x-x--x-x--x-----|
A|---14-x-14-x-14-14/1616\1212/14----|
D|-----------------------------------|
2:55
e|------------------------------------------|
B|------------------------------------------|
G|------------------------------------------|x1
D|------------------------------------------|
A|---14/16\14/16-16-16-16-16-16-16-16-16----|
D|------------------------------------------|

Play the above 2 parts 4 times

3:23 
tremolo       "awake and aware of it..."
e|---------------------------------------|
B|------17-14-------15-14----------------|
G|---11-------11-9--------11-9-13-11-----|x2
D|---------------------------------------|
A|---------------------------------------|
D|---------------------------------------|

3:38     
 tremolo        "here open wide..."
e|------------------------------------|
B|------------------------------------|
G|---11-9-14-13--11--9-13-14-16-------|
D|------------------------------------|
A|------------------------------------|
D|------------------------------------|

3:52  -  4:37   this goes with some effect, fades out slowly.
e|-----------|
B|-----------|
G|----16-----|
D|-----x-----|
A|----14-----|
D|-----------|

The End

************************************

| /   slide up
| \   slide down
| h   hammer-on
| p   pull-off
| ~   vibrato
| +   harmonic
| x   Mute note
| b   Bend
| pb  Pre-bend
| br  Bend release
| pbr Pre-bend release
| brb Bend release bend

************************************
Добавлено: 18.03.2012
Другие материалы по этой песне:
  • Аккорды и текст

Страница создана 18.03.2012
http://primanota.ru/dead-letter-circus/here-we-divide-chords.htm
Привет, Гость.
Предлагаем пройти революционный курс по гитаре.
Подарок от PrimaNota.Ru, забирай!