PrimaNota.ru - самый крупный в мире бесплатный архив песенных текстов, аккордов, табулатур и нот


Dead Letter Circus - Disconnect And Apply - таба, видео

Регистрация Запомнить меня
Войти через:  Facebook Google Twitter Vk Yandex Mail.ru

Dead Letter Circus - Disconnect And Apply - таба, видео

Печатать
Просмотров: 131
-----------------------------------------------------------
         Disconnect and Apply - Dead Letter Circus
-----------------------------------------------------------
Tabbed by: Kristyn Lee
Email: spot_the_village_loony_836@hotmail.com

Tuning: Drop D

Intro  (play twice) each note played fast, listen for timing.
e|-------------------------------------------------------|
B|--14-----------------14--12--16--14--14--12--16--14----|
G|--13--9--11--13--16--14--13--16--14--14--13--16--13----|
D|-------------------------------------------------11----|
A|-------------------------------------------------------|
D|-------------------------------------------------------|

verse
e|--------------------------|
B|--------------------------|
G|--------------------------|
D|---11~--9~--13~--11~------|x2
A|---9-~--7~--11~--9-~------|
D|--------------------------|

e|-------------------------------------------------|
B|---14-12-14-12-14-12-12--14-12-12-12-14-14-14----|
G|---------13-------11-11--------11-11-13-13-13----|
D|---------11-------9--9---------9--9--11-11-11----|
A|-------------------------------------------------|
D|-------------------------------------------------|
  "feel the world inside my head..."
e|-----------------------------------------|
B|---7-9-7-9-7-9-7-9-7-9--7-9-7-9-7-9^^----|
G|-----------------------------------------|
D|-----------------------------------------|
A|-----------------------------------------|
D|-----------------------------------------|

Solo
                            t
e|--16-16-16-16-14-14-14-14-11-11^----|
B|------------------------------------|
G|------------------------------------|
D|------------------------------------|
A|------------------------------------|
D|------------------------------------|

e|----------------------------------------------------------------------|
B|----------------------------------------------------------------------|
G|--8888888888888888-9999999999999999-11111111111111111111111111111111--|
D|--xxxxxxxxxxxxxxxx-xxxxxxxxxxxxxxxx-x-x-x-x-x-x-x-x-x-x-x-x-x-x-x-x---|
A|--6666666666666666-7777777777777777-9-9-9-9-9-9-9-9-9-9-9-9-9-9-9-9---|
D|----------------------------------------------------------------------|

e|-------------------------------------------------------|
B|-----------------------------------------------1414----|
G|--13131313131313131313131313131313-161616-14~--1313----|
D|--x-x-x-x-x-x-x-x-x-x-x-x-x-x-x-x--x-x-x--x----1111----|
A|--11111111111111111111111111111111-141414-12~----------|
D|-------------------------------------------------------|

e|---------------------------------------------------------------|
B|---14--14------------------------------------------------------|
G|---13--13--141414141414141414141414131313131313131313131313----|
D|---11--11--x-x-x-x-x-x-x-x-x-x-x-x-x-x-x-x-x-x-x-x-x-x-x-x-----|
A|-----------121212121212121212121212111111111111111111111111----|
D|---------------------------------------------------------------|

e|---------------------------------------------------------------------|
B|--1212121212121212-----------------------121212121212-121212121212---|
G|--1111111111111111-99999999-111111111111-131313131313-111111111111---|
D|--9-9-9-9-9-9-9-9------------------------111111111111-9-9-9-9-9-9----|
A|---------------------------------------------------------------------|
D|---------------------------------------------------------------------|

e|------------------|
B|---12121212~~~~---|
G|---13131313~~~~---|
D|---11111111~~~~---|
A|------------------|
D|------------------|


 "i can't take another day of this..."
e|-------------------------------|
B|-------------------------------|
G|-------------------------------|x2
D|-------------------------------|
A|---77777-66666-99999-77777-----|
D|---77777-66666-99999-77777-----|

Ending riff sounds something like this
e|---------------------------------|
B|-----------0---------------------|
G|----------------6/8-8p6---6------|
D|----7---6---------------9--------|
A|--------x------------------------|
D|--7---7-6----6-------------------|



************************************

| /   slide up
| \   slide down
| h   hammer-on
| p   pull-off
| ~   vibrato
| +   harmonic
| x   Mute note
| b   Bend
| pb  Pre-bend
| br  Bend release
| pbr Pre-bend release
| brb Bend release bend

************************************
Добавлено: 05.05.2012
Другие материалы по этой песне:
  • Аккорды и текст

Страница создана 05.05.2012
http://primanota.ru/dead-letter-circus/disconnect-and-apply-chords.htm
Привет, Гость.
Предлагаем пройти революционный курс по гитаре.
Подарок от PrimaNota.Ru, забирай!