PrimaNota.ru - самый крупный в мире бесплатный архив песенных текстов, аккордов, табулатур и нот


Dead Letter Circus - Big - текст песни, таба, видео

Регистрация Запомнить меня
Войти через:  Facebook Google Twitter Vk Yandex Mail.ru

Dead Letter Circus - Big - текст песни, таба, видео

Печатать
Просмотров: 109
--------------------------------------------------------
               Big - Dead Letter Circus
--------------------------------------------------------
Tabbed by: Kristyn Lee
Email: spot_the_village_loony_836@hotmail.com

Tuning: Drop D

Intro
e|-------------------------------------|
B|-------------------------------------|
G|---10~-------------------------------|x4
D|---0-~--7~---10~---12-12-10-14-10----|
A|--------8~---0-~---------------------|
D|-------------------------------------|

Verse
tremolo pick 
e|-------------------------------------------|
B|-----8-10----------8-10-12-8---------------|
G|---9------7-5-4--9-------------------------|
D|-------------------------------------------|
A|-------------------------------------------|
D|-------------------------------------------|

e|---------------------------------15-12-----|
B|------8-10-----------------12-13-----------|
G|----9------7-7777-7-77-7-------------------|
D|-----------x-xxxx-x-xx-x-------------------|
A|-----------5-5555-5-55-5-------------------|
D|-------------------------------------------|
               ....   ..
0:43   "i've been waiting..."
e|------------------------------------------------------------|
B|------------------------------------------------------------|
G|------------------------------------------------------------|x2
D|------------------------------------------------------------|
A|---7777777777777-7777777777777-000000000000-333333333333----|
D|---7777777777777-7777777777777-000000000000-333333333333----|
   "the faster that we collide..."
e|--------------------------------------------------|
B|--------------------------------------------------|
G|---10~-----------------------------10~------------|
D|---0-~--7~---10~---12-12-10-14-10--0-~--7~--10~---|
A|--------8~---0-~------------------------8~--------|
D|--------------------------------------------------|

1:10 - 1:30  no guitar 

1:30  "i can taste it..."
e|------------------------------------------------------------|
B|------------------------------------------------------------|
G|------------------------------------------------------------|x2
D|------------------------------------------------------------|
A|---7777777777777-7777777777777-000000000000-333333333333----|
D|---7777777777777-7777777777777-000000000000-333333333333----|

Chorus
e|-------------------------------------|
B|-------------------------------------|
G|---10~-------------------------------|x2
D|---0-~--7~---10~---12-12-10-14-10----|
A|--------8~---0-~---------------------|
D|-------------------------------------|

2:01
e|-------------------------------------------------------------------|
B|------------------------------------------------------------17-----|
G|---16-14-16-14-17-14----16-16-14-17-16-14-16-16-14-16-16-14---14---|
D|---------------------14--------------------------------------------|
A|-------------------------------------------------------------------|
D|-------------------------------------------------------------------|

e|----------------------------------------------------|
B|----------------------------------------------------|
G|---16-16-14-16-16-14-17-16-14-16-16-14--------------|
D|----------------------------------------------------|
A|---------------------------------------17-15-12~----|
D|----------------------------------------------------|

2:16    "are you ever big enough..."
e|--------------------------------------------|
B|------15-------13--------10-----------------|
G|---------14-------12\9------9-7-------------|x3
D|---12-------10-------7-7--------10-9\7------|
A|-------------------------------------5------|
D|--------------------------------------------|
                                   t
e|---------------------------------------|
B|---------------------------------------|
G|-----------------------------12-14-----|
D|--10/12-12/14-14-10-10-10-10-----------|
A|---------------------------------------|
D|---------------------------------------|
2:48  tremolo
e|-----------------------|
B|---6--8--10--13-15-----|
G|---x--x--x---x--x------|
D|---3--5--7---10-12-----|
A|-----------------------|
D|-----------------------|
2:55
     t  t  t  t
e|------------------------------------------------------------------|
B|---20-15---------13\12/13\12-xxx-13\12/13\12--12-12-12h13p12------|
G|---------12-14---x--x--x--x--xxx-x--x--x--x------------------14---|
D|-----------------10\9-/10\9--xxx-10\9-/10\9-----------------------|
A|------------------------------------------------------------------|
D|------------------------------------------------------------------|

e|------------17-17-17-17-----|
B|----------------------------|
G|---14-14-14-----------------|
D|----------------------------|
A|----------------------------|
D|----------------------------|

3:03  
e|-------------------------------------------------------------------|
B|------------------------------------------------------------17-----|
G|---16-14-16-14-17-14----16-16-14-17-16-14-16-16-14-16-16-14---14---|
D|---------------------14--------------------------------------------|
A|-------------------------------------------------------------------|
D|-------------------------------------------------------------------|

e|----------------------------------------------------|
B|----------------------------------------------------|
G|---16-16-14-16-16-14-17-16-14-16-16-14--------------|
D|----------------------------------------------------|
A|---------------------------------------17-15-12~----|
D|----------------------------------------------------|

3:23
e|----------------------------------------------------|
B|----------------------------------------------------|
G|---14----14-------12----------12----------14--------|x4
D|------12----10-10----10-10-10----10/12-12----12-----|
A|----------------------------------------------------|
D|----------------------------------------------------|

End
    t  t  t
e|--------------|
B|--13-15-17----|
G|--------------|
D|--------------|
A|--------------|
D|--------------|


************************************
| t   tremolo
| /   slide up
| \   slide down
| h   hammer-on
| p   pull-off
| ~   vibrato
| +   harmonic
| x   Mute note
| b   Bend
| pb  Pre-bend
| br  Bend release
| pbr Pre-bend release
| brb Bend release bend

************************************
Добавлено: 29.04.2012
Другие материалы по этой песне:

Страница создана 27.02.2012
http://primanota.ru/dead-letter-circus/big-chords.htm
Привет, Гость.
Предлагаем пройти революционный курс по гитаре.
Подарок от PrimaNota.Ru, забирай!