PrimaNota.ru - самый крупный в мире бесплатный архив песенных текстов, аккордов, табулатур и нот


Dead Letter Circus - Are We Closer - текст песни, таба, бас-таба, видео

Регистрация Запомнить меня
Войти через:  Facebook Google Twitter Vk Yandex Mail.ru

Dead Letter Circus - Are We Closer - текст песни, таба, бас-таба, видео

Печатать
Просмотров: 140
------------------------------------------------------------------
                 Are We Closer - Dead Letter Circus
------------------------------------------------------------------
Tabbed by: Kristyn Lee
Email: spot_the_village_loony_836@hotmail.com

Tuning: Drop D

Intro
guitar 1
e|----------------------------------|
B|----------------------------------|
G|----------------------------------|
D|----------------------------------|
A|-8-8-8-8-8-8-8-8-8-8-8-8-8-8-8-8--|
D|----------------------------------|
guitar 2
e|--9p8h9----|
B|-----------|
G|-----------|
D|-----------|
A|-----------|
D|-----------|

verse
guitar 1        t t  t t 
e|--9p8h9----|--8-11-8-13---|
B|-----------|--------------|
G|-----------|--------------|
D|-----------|--------------|
A|-----------|--------------|
D|-----------|--------------|
guitar 2
e|----------------------------------|
B|----------------------------------|
G|----------------------------------|
D|--111011-111011-111011-11101110---|
A|--8-8-8--8-8-8--8-8-8--8-8-8-8----|
D|----------------------------------|

0:31
e|------------------------------------------------|
B|------------------------------------------------|
G|--10~--10~--10-10-------------------------------|
D|--10~--10~--10-10-------------------------------|
A|--8-~--8-~--8--8--------------------------------|
D|--8-~--8-~--8--8--------------------------------|
pre-chorus
guitar 1
e|------------------------------------------------------|
B|------------------------------------------------------|
G|------------------------------------------------------|
D|-10101010101010101010101010101010---------------------|
A|-8-8-8-8-8-8-8-8-8-8-8-8-8-8-8-8--66666666-88888888---|
D|----------------------------------66666666-88888888---|
guitar 2
e|---8-11-8---8-11-8------------------------------------|
B|---------------------9999/11111111--------------------|
G|---------------------8888/10101010--------------------|
D|------------------------------------------------------|
A|------------------------------------------------------|
D|------------------------------------------------------|
chorus
e|--------------------------------------------|
B|--------------------------------------------|
G|-----8888----8888----1313131313/15151515----|
D|--33-xxxx-33-xxxx-66-x-x-x-x-x--x-x-x-x-----|
A|--33-6666-33-6666-66-1111111111/13131313----|
D|--33------33------66------------------------|

e|--1~---|
B|--1~---|
G|--0~---|
D|-------|
A|-------|
D|-------|

repeat verse

1:19
e|------------------------------------------------|
B|------------------------------------------------|
G|--10~--10~--10-10-------------------------------|
D|--10~--10~--10-10-------------------------------|
A|--8-~--8-~--8--8--------------------------------|
D|--8-~--8-~--8--8--------------------------------|

Repeat pre-chorus & chorus

1:48  I think both guitars play this but over eachother at different times
e|--------11-11------------------11----13---------------|
B|--------------11-9-8--------------------11-9-8--------|
G|--10-10--------------10--10-10----10------------10----|
D|------------------------------------------------------|
A|------------------------------------------------------|
D|------------------------------------------------------|

2:14   play each note 16 times
guitar 1
e|--------11-13----------------|
B|--13-13----------------------|
G|-----------------------------|
D|-----------------------------|
A|-----------------------------|
D|-----------------------------|
guitar 2                       |
e|-----------------------------|
B|-----------------------------|
G|-----------------------------|
D|--1010101010101010-----------|
A|--8-8-8-8-8-8-8-8------------|
D|-----------------------------|

2:30   guitar 1
e|-----------------------------|
B|--13-13-13-14\13/14\13/14----|
G|-----------------------------|
D|-----------------------------|
A|-----------------------------|
D|-----------------------------|
       guitar 2                |
e|-----------------------------|
B|-----------------------------|
G|-----------------------------|
D|--101010h11p10h11p10h11------|
A|--8-8-8--8--8--8--8--8-------|
D|-----------------------------|

2:43  guitar 1  "really i dont mind.."
e|----------------------------------------|
B|--13-13-13-14\13/14\13/14---------------|
G|----------------------------------------|
D|----------------------------------------|
A|----------------------------------------|
D|----------------------------------------|
      guitar 2                            |
e|----------------------------------------|
B|----------------------------------------|
G|----------------------------------------|
D|--1010101010101010--66666666------------|
A|--8-8-8-8-8-8-8-8---44444444--66666666--|
D|------------------------------66666666--|

2:51
e|--------------------------------|
B|--------------------------------|
G|--10---3--5--6--5-5\------------|
D|--x----x--x--x--x-x-------------|
A|--8----1--3--4--3-3\------------|
D|--------------------------------|
2:55
e|---------------------------------------------------------|
B|---------------------------------------------------------|
G|------------------------------------13131313/15151515----|
D|--10101010101010101010101010101010--x-x-x-x--x-x-x-x-----|
A|--8-8-8-8-8-8-8-8-8-8-8-8-8-8-8-8---11111111/13131313----|
D|---------------------------------------------------------|


last chorus
guitar 1
e|-------------------------------------------------------|
B|-------------------------------------------------------|
G|-101010101010-101010101010-131313131313/151515151515---|
D|-x-x-x-x-x-x--x-x-x-x-x-x--x-x-x-x-x-x--x-x-x-x-x-x----|
A|-8-8-8-8-8-8--8-8-8-8-8-8--111111111111/131313131313---|
D|-------------------------------------------------------|
guitar 2
e|-------------------------------------------------------|
B|-------------------------------------------------------|
G|-------------------------------------------------------|
D|--1010101010101010-666666------------------------------|
A|--8-8-8-8-8-8-8-8--444444-666666-888888----------------|
D|--------------------------666666-888888----------------|


| /  slide up
| \  slide down
| h  hammer-on
| p  pull-off
| ~  vibrato
| +  harmonic
| x  Mute note
=============================================================
Добавлено: 17.06.2012
Другие материалы по этой песне:
  • Аккорды и текст

Страница создана 09.04.2012
http://primanota.ru/dead-letter-circus/are-we-closer-chords.htm
Привет, Гость.
Предлагаем пройти революционный курс по гитаре.
Подарок от PrimaNota.Ru, забирай!